Dimmu Borgir

Dimmu Borgir - Raabjorn Speiler Draugheims Skodde bass tab

standard tuning

G||------|------|------|------|--------------------|-------------------|

D||------|------|------|------|--------------------|-------------------|

A||------|------|------|------|--7--------7--------|-------------------|

E||------|------|------|------|--------------------|--7----------------|

-------------------|-------------------|------------------|------------------|

-------------------|-------------------|------------------|------------------|

--7----------------|-------------------|------------------|------------------|

-------------------|--7----------------|------------------|------------------|

------------------|------------------|-----------------------|

------------------|------------------|-----------------------|

------------------|------------------|--2----2---------------|

------------------|------------------|------------3----3--3--|

----------------------|-----------------------|----------------------|

----------------------|-----------------------|----------------------|

--2----2--------------|--2----2---------------|--2----2--------------|

------------3----2----|------------3----3--3--|------------3----2----|

----------------------|------------------------|----------------------|

----------------------|------------------------|----------------------|

------------8----7----|------------8-7-5--7----|------------8----7----|

--5----5--------------|--5----5----------------|--5----5--------------|

------------------------|--------------------|

------------------------|--------------------|

------------8-7-5--7----|--0-----------------|

--5----5----------------|--------------------|

----------------------------------|

----------------------------------|

--0---------3--5-7----------------|

----------------------1-1-1-3-3-3-|

|----------------------------------------------|

|*---------------------------------------------|

|*--0-0-0--0-0--0-0-3--5-7-7-7--7-7--7-7-8-8-8-|

|----------------------------------------------|

-----------------------------------------------||------------------|

----------------------------------------------*||------------------|

--0-0-0--0-0--0-0-3--5-7-7-7--7-7-------------*||------------------|

----------------------------------1-1-1-3-3-3--||------------------|

------------------|------------------|------------------|

------------------|------------------|------------------|

------------------|------------------|------------------|

------------------|------------------|------------------|

|-------------------------|-------------------------||--------------------|

|*------2---2-------------|------2---2-------------*||--------------------|

|*--0----------3---2---2--|--0----------3----------*||--0-----------------|

|-------------------------|-----------------3---3---||--------------------|

----------------------------------|

----------------------------------|

--0---------3--5-7----------------|

----------------------1-1-1-3-3-3-|

|----------------------------------------------|

|*---------------------------------------------|

|*--0-0-0--0-0--0-0-3--5-7-7-7--7-7--7-7-8-8-8-|

|----------------------------------------------|

-----------------------------------------------||------------------|

----------------------------------------------*||------------------|

--0-0-0--0-0--0-0-3--5-7-7-7--7-7-------------*||------------------|

----------------------------------1-1-1-3-3-3--||------------------|

------------------|------------------|------------------|

------------------|------------------|------------------|

------------------|------------------|------------------|

------------------|------------------|------------------|

------------------------|------------------------|------------------------|

------2---2-------------|------2---2-------------|------2---2-------------|

--0----------3---2---2--|--0----------3----------|--0----------3---2---2--|

------------------------|-----------------3---3--|------------------------|

------------------------|---------------------|----------------------|

------2---2-------------|---------------------|----------------------|

--0----------3----------|---------------------|----------------------|

-----------------3---3--|--0--------5--8------|--0--------8--5--7----|

---------------------|----------------------|---------------------|

---------------------|----------------------|---------------------|

---------------------|----------------------|---------------------|

--0--------5--8------|--0--------8--5--7----|--0--------5--8------|

----------------------|---------------------|----------------------|

----------------------|---------------------|----------------------|

----------------------|---------------------|----------------------|

--0--------8--5--7----|--0--------5--8------|--0--------8--5--7----|

---------------------|----------------------|---------------------|

---------------------|----------------------|---------------------|

---------------------|----------------------|---------------------|

--0--------5--8------|--0--------8--5--7----|--0--------5--8------|

----------------------|---------------------|----------------------|

----------------------|---------------------|----------------------|

----------------------|---------------------|----------------------|

--0--------8--5--7----|--0--------5--8------|--0--------8--5--7----|

---------------------|----------------------|---------------------|

---------------------|----------------------|---------------------|

---------------------|----------------------|---------------------|

--0--------5--8------|--0--------8--5--7----|--0--------5--8------|

----------------------|---------------------|----------------------||

----------------------|---------------------|----------------------||

----------------------|---------------------|----------------------||

--0--------8--5--7----|--0--------5--8------|--0--------8--5--7----||

Taken from The BassMasta -- http://www.tabs-database.com

Get this song at:  amazon.com sheetmusicplus.com

Share your thoughts

0 Comments found