Die Rzte

Die Rzte - Rzte-theme -instrumental guitar tab

Ärzte-Theme (Instrumental)

==========================

(M:Felsenheimer/Runge/Urlaub)

1:------------------------------------------------------------------------

2:------------------------------------------------------------------------

3:------------------------------------------------------------------------

4:--0-----------2-----------------------------------------------

5:-33------3----2--8-8-8-8-7-7-7-7-6-6-6-6-5-5-5-5-4-4-4-4-3-3-3-3-2-2-2-2

6:--3-----------0---------------------------------------------------------

1:------------------------------------------------------------------------

2:------------------------------------------------------------------------

3:------------------------------------------------------------------------

4:-----8/0----------------------------------------------------------------

Sm..

1:------------------------------------------------------------------------

2:------------------------------------------------------------------------

3:------------------------------------------------------------------------

4:-------------3-3^2--3-3^2---------------3-3^2--3-0-2--------------3-3^2-

5:-1-1-1-1-0-----------------3--2--1--0------------------3--2--1--0-------

6:------------------------------------------------------------------------

1:------------------------------------------------------------------------

2:------------------------------------------------------------------------

3:---------0-----------------3--2--1--0------------------3--2--1--0-------

4:------------------------------------------------------------------------

1:------------------------------------------------------------------------

2:------------------------------------------------------------------------

3:------------------------------------------------------------------------

4:-3-3^2--------------3-3^2-----------------------3-3-2--3-3-2------------

5:--------3--2--1--0---------2--2--3-3-4-4-5-5--0----------------3--2--1--

6:---------------------------0--0--1-1-2-2-3-3----------------------------

1:------------------------------------------------------------------------

2:-------------------------------------------------2-2-----2-2------------

3:--------3--2--1--0----------------------------0--------0-------3--2--1--

4:---------------------------0--0--1-1-2-2-3-3----------------------------

1:------------------------------------------------------------------------

2:------------------------------------------------------------------------

3:------------------------------------------------------------------------

4:---3-3-2--3-0-2---------------3-3-2--3-3-2--------------3-3-2-----------

5:-0---------------3--2--1--0------------------3--2--1--0--------2--2--3-3

6:---------------------------------------------------------------0--0--1-1

1:------------------------------------------------------------------------

2:---2-2-----2-2----------------2-2-----2-2----------------2-2------------

3:-0------0--------3--2--1--0--------0---------3--2--1--0-----------------

4:---------------------------------------------------------------0--0--1-1

1:------------------------------------------------------------------------

2:------------------------------------------------------------------------

3:------------2--4--2--5-5--4--2-4-2---2--4--2--1-2-1-------2--4--2--5-5--

4:-----------------------------------3----------------2/9--2--------------

5:-4-4-5-5--0---------------------------------------------0---------------

6:-2-2-3-3----------------------------------------------------------------

1:------------------------------------------------------------------------

2:--------------2-2------2-2------------0----------0-----------2-2-----2-2

3:----------0---------0-------------------3-2---------3-2--0---------0----

4:-2-2-3-3---------------------------1----------0-------------------------

1:-------------------------------5--7--5--8-8--7--5--5-5-5-5-5-5-5-5--5--5

2:-------------------------------5--5--5--5-5--5--5--6-6-6-6-6-6-6-6--6--6

3:--4--2-4-2---2--4--2--1-2-1--2---------------------5-5-5-5-5-5-5-5--5--5

4:-----------3-----------------------------------------------------------

5:------------------------------------------------------------------------

6:------------------------------------------------------------------------

1:------------------------------------------------------------------------

2:--------------0---------0----------2-2-----2-2---------0----------------

3:-----------------3-2-------3-2--0-------0-----------------3-2-----------

4:------------1--------0-------------------------------1------------------

1:-4--4--4-4-4-----5--7--5--8-8--7--5-7-5--5-5--7--5--4-4--5--4--5--------

2:-5--5--5-5-5-----5--5--5--5-5--5--5-5-5--6-6--6--6--5-5--5--5--5--------

3:-4--4--4-4-4-----------------------------5----------4----------5--------

4:---------------7--------------------------------------------------------

5:------------------------------------------------------------------------

6:------------------------------------------------------------------------

1:------------------------------------------------------------------------

2:---0---------------2-2----------2-2--------0--------0-------------------

3:-----3-2--------0-----------0-----------------3-2------3-2--------------

4:-0---------------------------------------1---------0--------------------

6x:

1:------------------------------------------------------------------------

2:------------------------------------------------------------------------

3:------------------------------------------------------------------------

4:--5---5--1---1--0---0---------------------------------------------------

Ab dem tzweiten Mal:Ahhhhhhahhhhahahhhahhhaaaa

1:------------------------------------------------------------------------

2:------------------------------------------------------------------------

3:------------------------------------------------------------------------

4:----3-3-2--3-3-2---------3-3-2--3-0-2----------3-3-2--3-0-2-------------

5:--0--------------3-2-1-0---------------3-2-1-0--------------3-2-1-0-----

6:------------------------------------------------------------------------

1:------------------------------------------------------------------------

2:----2-2----2-2-----------2-2-----2-2------------2-2----2-2--------------

3:--0------0-------3-2-1-0-------0-------3-2-1-0-------0------3-2-1-0-----

4:------------------------------------------------------------------------

1:------------------------------------------------------------------------

2:------------------------------------------------------------------------

3:-----------------------------2--4--2--5-5--2-4-2---2--4--2--1-2-1-------

4:-3-3-2-------------------------------------------3----------------------

5:--------2--2--3-3-4-4-5-5--0-------------------------------------2/....0

6:--------0--0--1-1-2-2-3-3-----------------------------------------------

1:------------------------------------------------------------------------

2:-2-2--------------------------2-2-----2-2-----------0----------0--------

3:---------------------------0-------0-------------------3-2--------3-2---

4:--------0--0--1-1-2-2-3-3-------------------------1---------0-----------

1:-----------------------------------------------5...--5...--4...--5...--5

2:-----------------------------------------------5-----6-----5-----5-----6

3:--2--4--2--5-5--2-4-2---2--4--2--1-2-1---------5-----5-----4-----5-----5

4:----------------------3-----------------2^3^2---------------------------

5:------------------------------------------------------------------------

6:------------------------------------------------------------------------

Fill............ Fill...

1:------------------------------------------------------------------------

2:-----2-2-----2-2----------0----------0----------------------------------

3:--0-------0------------------3-2--------3-2-----------------------------

4:-----------------------1----------0-------------------------------------

1:...--4...--0------------------------------------------------------------

2:-----5-----0------------------------------------------------------------

3:-----4-----2------------------------------------------------------------

4:-----------2------------------------------------------------------------

5:-----------0------------------------------------------------------------

6:------------------------------------------------------------------------

........... let ring............

1:------------------------------------------------------------------------

2:-----------3--2---------------------------------------------------------

3:-----------------3--1---------------------------------------------------

4:------------------------------------------------------------------------

Fill:

1:------------------------------------------------------------------------

2:----3-2-----3-2----0----------0-----------------------------------------

3:-0-------0------------3-2--------3-2------------------------------------

4:-----------------1---------0--------------------------------------------

Get this song at:  amazon.com sheetmusicplus.com

Share your thoughts

0 Comments found