Die Rzte

Die Rzte - 1 2 bass tab

kein Bass

[Ich weiss, Du wirst mich vermissen

Auch wenn Du jetzt gehen mußt

Keine Geigen mehr, wenn wir uns küssen

Ich hab' es einfach nicht gewußt]

Fill1

G:-----------------------------------------------------------------

D:-------------------------------5---4-----------------------------

A:------------------5----------------------5-----3-------2---3--5--

E:-3------3----5-7-------------------------------------------------

Ich hoff, meine Worte machen es nicht noch schlimmer

Fill2

G:----------------------------------------------------------------------------

D:---------------------------------------------------5-4----------------------

A:--------------------------------------------5------------5---3--2--0--2-----

E:-------------------0-2---3---------5-----7----------------------------------

Vergiß nur einmal Deinen Stolz Ich weiß, Du liebst mich noch immer

=CHORUS=

Fill3

G:-------------------------------------------------

D:-----------2--4----------------------------------

A:---------2------3-----------3--3--5---5----------

E:-0----3------------------------------------------

Soll es das gewesen sein? (wie im Lovesong)

Fill3

Fällt uns denn keine Lösung ein (wie im Lovesong)

Fill3

Die Mög-lich-keit ist viel zu klein (für'n Lovesong)

Fill3

Doch ich liebe nur Dich allein

Zwischenspiel(und Strophenbgleitung):

G:------------------------------------

D:------------------------------------

A:----5--4--2--3--------5-5-----------

E:-0----------------5-5---------------

Vieles ist zur Gewohnheit verkommen

Doch das ist immer die Gefahr

Routine hat ihren Platz eingenommen

Bis es nicht mehr auszuhalten war

Fill1

Ich hoff, meine Worte machen es nicht noch schlimmer

Fill2

Vergiß nur einmal Deine Stolz Ich weiß, Du liebst mich noch immer...

[=CHORUS=]

==BRIDGE==

G:------------------------------------------------------------------

D:------------------------------------------------------------------

A:------------------------------------------------------------------

E:-0-0-0------2-2-2------3-3-3------5-5-5------0-0-0------2-2-2-----

Love, love, love,

Taken from The BassMasta -- http://www.tabs-database.com

Get this song at:  amazon.com sheetmusicplus.com

Share your thoughts

0 Comments found