Die Aerzte

Die Aerzte - Wir Fahren Gerne Manta Manta guitar tab

Wir fahren gerne Manta, Manta

=============================

(M/T: Urlaub)

Note: Chords

D H G B A h E A' e

1:---|---|-3-|-6-|-5-|-7-|-0-|----|-7-|

2:-7-|---|-3-|-6-|-5-|-7-|-0-|-14-|-8-|

3:-7-|-8-|-4-|-7-|-6-|-7-|-1-|-14-|-9-|

4:-7-|-9-|-5-|-8-|-7-|-9-|-2-|-14-|-9-|

5:-5-|-9-|-5-|-8-|-7-|-9-|-2-|-12-|-7-|

6:---|-7-|-3-|-6-|-5-|-7-|-0-|----|---|

Intro:

Für mich...

D

D H H

1:------------|-------------|--------------| |-------|

2:----7--8-7--|----7--8-7---|----7--7------| |-------|

3:-7---------9|-7---------9-|-8-------9--8-| |-------|

4:------------|-------------|--------------| |--9--7-|

5:------------|-------------|--------------| |-------|

6:------------|-------------|--------------| |-------|

D H

1:------------|-------------|--------------|

2:----7--8-7--|----7--8-7---|----7--7------|

3:-7---------9|-7---------9-|-8-------9--8-|

4:------------|-------------|--------------|

5:------------|-------------|--------------|

6:------------|-------------|--------------|

1.Verse:

D

Wir ham Geschmack, hey.

D

Wir ham Stil, hey.

H

Wir sind jung und sehn super aus.

D

Heute wir unterwegs,

H

Ich und Horst und Gerd und Klaus.

G B

Wir sind bekannt

D

für unsere Subtilität.

G B A

Und es gibt bei uns ein Auto um das sich alles dreht.

Chorus:

D G A

Nimm dir die Welt, nimm die Sonne und die Sterne.

D G A

Nimm dir den Wald und die Sonnenblumenkerne.

h A G E A

Lasst uns die Autobahn, dann können wir weiter fahrn.

D G A Fill Fill

Denn wir fahren nun mal gerne Manta, Manta; Manta, Manta.

Fill:

4:-xx7--xx5--xx4--xx3--|

2.Verse:

D

Wir hören Punk, hey.

D

lesen Brecht, hey.

H

ab und zu mal was von Goethe.

D

Immer nur---Quantenphysik, ha.

H

Das wär' uns echt zu blöde.

G B

Was unsere Fraun betrifft,

D

Da sind wir wählerisch.

G B

Und unser Lieblingsauto

A

heißt genauso wie der Fisch.

Chorus:

D G A

Nimm dir die Welt, nimm die Sonne und die Sterne.

D G A

Nimm dir den Wald und die Sonnenblumenkerne.

h A G E A

Lasst uns die Autobahn, dann können wir weiter fahrn.

D G A Fill Fill

Denn wir fahren nun mal gerne Manta, Manta; Manta, Manta.

Bridge:

h A

Neulich is dem Gerd, was Grässliches passiert.

A' e

Bei knapp zweihundert Sachen ist er abgeschmiert, oh.

h A

Gerd hat's überlebt, der Manta, der war Schrott.

G A

Der fährt jetzt durch den Himmel, getuned vom lieben Gott. (Gott fährt Manta)

Chorus:

D G A

Nimm dir die Welt, nimm die Sonne und die Sterne.

D G A

Nimm dir den Wald und die Sonnenblumenkerne.

h A G E A

Lasst uns die Autobahn, dann können wir weiter fahrn.

D G A Fill Fill Fill

Denn wir fahren furchtbar gerne Manta, Manta; Manta, Manta; Manta, Manta.

D

uhh...

****************************************************

*This Tab was downloaded from www.Debil-Tabs.de.vu *

****************************************************

Get this song at:  amazon.com sheetmusicplus.com

Share your thoughts

0 Comments found