Die Aerzte

Die Aerzte - Wie Es Geht guitar tab

Wie es geht

===========

(M/T: Urlaub)

Note: Chords

C B F a G

1:-3-|-6-|-1-|-0-|-3-|

2:-5-|-6-|-1-|-1-|-3-|

3:-5-|-7-|-2-|-2-|-4-|

4:-5-|-8-|-3-|-2-|-5-|

5:-3-|-8-|-3-|-0-|-5-|

6:---|-6-|-1-|---|-3-|

Intro:

Intro-Riff (5x):

1:---------------------------------|---------------------------------|

2:-----8-8-----8-8-----6-6-----6-6-|-----5-5-----5-5-----6-6-----6-6-|

3:-5-5-----5-5-----5-5-----5-5-----|-5-5-----5-5-----5-5-----5-5-----|

4:---------------------------------|---------------------------------|

5:---------------------------------|---------------------------------|

6:---------------------------------|---------------------------------|

C B F C B F Fill1

xxxxxxxx - xxxxxxxx - xxxxxxxx - xxxxxxxx - xxxxxxxx

(Every 'xxxxxxxx' stands for one time the Intro-Riff)

Fill1:

At the end of the Intro (insted of the last '6' in the Riff):

C

1:------

2:------

3:-4^5--

4:------

5:------

6:------

1.Verse (With verseaccompaniment)

a F C'

Ich schau Dich an und Du bist unbeschreiblich schön,

Verseaccompaniment 1. + 2. line:

a F C

1:--------------|-------------|-------------|

2:--------------|-------------|-------------|

3:--------------|-------------|-------------|

4:--2--2^3^2----|-2--2^3^2----|-2--3--5--3--|

5:------------3-|-----------3-|-3--3--3--3--|

6:--------------|-------------|-------------|

a F C

Ich könnte ewig hier sitzen und Dich einfach nur ansehn.

G F

Doch plötzlich stehst Du auf und Du willst gehn.

Chorus:

(with the following Pickingpattern:)

C

1:-------3-------------3-------|-------3-------------3-------|

2:----------1-------------1----|----------1-------------1----|

3:----0-------0-----0-------0--|----0-------0-----0-------0--|

4:-----------------------------|-----------------------------|

5:-3-------------3-------------|3--------------3-------------|

6:-----------------------------|-----------------------------|

Bitte geh noch nicht, ich weiß, es ist schon

a F C

1:-------3-------------3-------| |-------3-------------3-------|------

2:----------1-------------1----| |----------1-------------1----|------

3:----0-------0-----0-------0--| |----0-------0-----0-------0--|------

4:-----------------------------| |-----------------------------|------

5:-0-------------0-------------| |-----------------------------|--3...

6:-----------------------------| |1--------------1-------------|------

spät, ich will Dir noch was sagen ich weiß nur nicht wie es geht.

a

Bleib noch ein bisschen hier und schau mich nicht so an,

F C

weil ich sonst ganz bestimmt überhaupt gar nichts sagen kann.

Interlude (With Intro-Riff 4x):

C B F C B F

xxxxxxxx - xxxxxxxx - xxxxxxxx - xxxxxxxx

2.Verse (With verseaccompaniment):

a F C

Ich weiß selber nicht, was los ist, meine Knie werden weich,

a F C

Im Film sieht es so einfach aus, jetzt bin ich kreidebleich.

G F

Ich weiß nicht, was ich sagen soll, mein Gott, jetzt gehst Du gleich.

Chorus (With pickingpattern):

C a

Bitte geh noch nicht, bleib noch ein bisschen hier,

F C

Ich muss Dir noch was sagen, nur die Worte fehlen mir.

a

Bitte geh noch nicht, ich weiß, es ist schon spät,

F C

Ich will Dir noch was sagen, ich weiß nur nicht wie es geht...

Interlude (With Intro-Riff 4x):

C B F C B F

Wie es geht, wie es gehehehet! Wie es geht, wie es geht, wie es gehehehet

Bridge:

With the Bridge-Riff till Fill:

p.m....

1:---5-5-5-

2:---------

3:-5-------

a G d F

Ich dachte immer, dass es leicht wär,

a G F d

Ich dachte immer, das ist doch kein Problem.

a G d F

Jetzt sitz ich hier wie ein Kaninchen vor der Schlange,

a G F d

Und ich fühl mich wie gelähmt.

(Fill)G F

Ich muss es sagen, ich weiß nur noch nicht wie,

G F

Ich muss es Dir sagen, jetzt oder nie!

Fill:

G F G F

1:------------------|------------------|--------------|---------13--12-------------|

2:-10--12----13^12--|10--^11^10----10--|12-----13^12--|13---15----------13--15--13-|

3:------------------|------------------|--------------|----------------------------|

4:------------------|------------------|--------------|----------------------------|

5:------------------|------------------|--------------|----------------------------|

6:------------------|------------------|--------------|----------------------------|

Chorus (with pickingpattern):

C a

Bitte geh noch nicht, am besten, gehst Du nie,

F C

Ich hab's Dir schon so oft gesagt, in meiner Fantasie.

Bleib noch ein bisschen hier, bitte geh noch nicht,

F C

Was ich versuche, Dir zu sagen, ist "Ich liebe Dich"

Outro (with Intro-Riff 4x):

C B F

Ich weiß nicht, wie es geht, wie es gehehehet

C B F

Wie es geht, wu-hu

[Then Intro-Riff 8x:]

C B F C B F

xxxxxxxx - xxxxxxxx - xxxxxxxx - xxxxxxxx

C B F C B F

xxxxxxxx - xxxxxxxx - xxxxxxxx - xxxxxxxx

****************************************************

*This Tab was downloaded from www.Debil-Tabs.de.vu *

****************************************************

Get this song at:  amazon.com sheetmusicplus.com

Share your thoughts

0 Comments found