Die Aerzte

Die Aerzte - Bitte Bitte guitar tab

Bitte, bitte

============

(M/T: Urlaub)

Staying figure (chords from the bass-solo=Keyboard arranged for guitar)

a a a

1:-12-------10-8-10--12-|-12-------10-8------|-12-------10-8-10--12-|

2:------10--------------|------10-------10---|------10--------------|

3:----------------------|--------------------|----------------------|

4:----------------------|--------------------|----------------------|

5:----------------------|--------------------|----------------------|

6:----------------------|--------------------|----------------------|

e

1:----12------12--|-----12------12--12-|

2:-12------12-----|--12------12--------|

3:----------------|--------------------|

4:----------------|--------------------|

5:----------------|--------------------|

6:----------------|--------------------|

Intro:

Bitte, bitte

Bitte, bitte

a a a e

1.Verse:

(11 measures Staying firgure, so let the last e out; chords standing here)

a a

Ich habe ein Geschenk für dich.

a e

Ich liebe dich. Ich schenk dir mich.

a a

Frag mich nicht, du weißt warum.

a e

Ab heut' bin ich dein Eigentum, oh.

C D

Du tust mir weh, was will ich mehr?

a a

Ich bin dein Diener, du der Herr.

C D

Ab heut' gehör ich dir allein!

Chorus (w/acousticguitar):

a

Bitte laß mich! Oh

F G

Bitte, bitte laß mich! Oh

a

Bitte, bitte laß mich! Oh

F G

Laß mich dein Sklave sein.

2.Verse:

(11 measures Staying firgure, so let the last e out; chords standing here)

a a

Was immer du befiehlst, ich tu's.

a e

Ich küß die Spitze deines Schuh's.

a a

Und wenn du mir die Knute gibst,

a e

weiß ich, daß auch du mich liebst!

C D

Ich bin nicht mehr zu retten,

a a

peitsch mich aus, leg mich in Ketten!

C D

Ab heut' gehör ich dir allein!

Refrain (mit Akustikgitarre):

a

Bi-Bi-Bitte, bitte laß mich! Oh

F G

Bitte, bitte laß mich! Oh

a

Bitte laß mich! Oh

F G

Bitte, bitte laß mich! Oh

a

Bitte laß mich!

F G

Bitte, bitte laß mich! Oh Oh

a

Bitte, bitte laß mich! Oh

F G G a

Laß mich dein Sklave sein.

Outro-Figure

(chords from the bass-solo=Keyboard arranged for guitar; the outro-figure is played together

with the sing-sang during the whole outro, so 8x)

a a F G

1:-8-8-7--5--| |-8-8-7--5---| |-8-8-7--5--7| |-8-8-7--5--|

2:-----------| |------------| |------------| |-----------|

3:-----------| |------------| |------------| |-----------|

4:-----------| |------------| |------------| |-----------|

5:-----------| |------------| |------------| |-----------|

6:-----------| |------------| |------------| |-----------|

Was du willst, wann du willst, wo du willst, und wie du willst.

Outro (w/acousticguitar and outro-figure):

a a

Bitte laß mich!

F G

Bitte, bitte laß mich!

a a

Bitte, bitte laß mich!

F G

Laß mich dein Sklave sein.

a a

Bitte, bitte laß mich! Oh

F G

Bitte, bitte laß mich! Oh

a a

Bitte, bitte laß mich! Oh

F G G a

Bitte, bitte laß mich dein Sklave sein.

a a

Bitte, bitte laß mich! Oh

F G

Bitte, bitte laß mich! Oh

a a

Bitte, bitte laß mich! Oh

F G G a

Bitte, bitte laß mich dein Sklave sein.

a a

Bitte, bitte laß mich! Oh

F G

Bitte, bitte laß mich! Oh

a a

Bitte, bitte laß mich! Oh

F G G

Laß mich dein Sklave sein.

****************************************************

*This Tab was downloaded from www.Debil-Tabs.de.vu *

****************************************************

Get this song at:  amazon.com sheetmusicplus.com

Share your thoughts

0 Comments found