Die Aerzte

Die Aerzte - Alles So Einfach guitar tab

Alles so einfach

================

(M/T: Urlaub)

Note:Chords

Hole Song Only 1st part in the chorus:

C a ab d G e F C* E* C Cj7 B F

1:-3-|-5-|-4-|-5-|-3-|-7-|-1-|-0-|-0-|-8--|-7--|-6-|----|

2:-5-|-5-|-4-|-6-|-3-|-8-|-1-|-1-|-0-|-8--|-8--|-6-|-10-|

3:-5-|-5-|-4-|-7-|-4-|-9-|-2-|-0-|-1-|-9--|-9--|-7-|-10-|

4:-5-|-7-|-6-|-7-|-5-|-9-|-3-|-2-|-2-|-10-|-10-|-8-|-10-|

5:-3-|-7-|-6-|-5-|-5-|-7-|-3-|-3-|-2-|----|----|---|-8--|

6:---|-5-|-4-|---|-3-|---|-1-|---|-0-|----|----|---|----|

Wind player-Intro:

C a ab-a d G

C a ab-a d G(Fill)

Fill:

1:-3-3--1-1--0-0------|

2:----------------3-3-|

1.Verse:

a e F G

Du sagst, du willst Frieden und nie wieder Krieg,

a e F G

nie mehr schlechtes Wetter, nur noch gute Musik. (oh, yeah)

F G C* E*

Du sagst, dass die Menschen sich liebhaben sollen.

F G

Und du willst Arbeit für Alle, für Alle, die arbeiten wollen.

Chorus:

C Cj7

Wenn das mal alles so einfach wär,

B F

dann gäb es keine Probleme mehr.

C Cj7

Die Polizei wäre arbeitslos,

B F

das wäre wirklich ganz groß.

C

Wenn das mal alles so einfach wär,

a

dann hätt' ich drei Sorgen weniger.

F

Dann wär die Welt voller Zuversicht.

G

Ja, aber so einfach ist es nicht... (hui)

Wind Player-Interlude:

C a ab-a d G

2.Verse:

a e F G

Du bist gegen Armut und gegen Gewalt

a e F G

Und gegen Rassismus in jeder Gestalt

F G C* E*

Du willst Liebe für Alle und Brot für die Welt

F G

und einen Politiker, der das, was er verspricht, auch wirklich hält.

Chorus:

C Cj7

Wenn das mal alles so einfach wär (Alles so einfach)

B F

Dann gäb es keine Probleme mehr

C Cj7

Die Polizei könnt nach Hause gehen. (Auf Wiedersehen)

B F

Dann muss man die nicht mehr anzünden (nicht mehr anzünden)

C

Wenn das mal alles so einfach wär, (Alles so einfach)

a

dann hätt' ich drei Sorgen weniger. (Alles so einfach)

F

Dann wär die Welt voller Zuversicht.

G

Ja, aber so einfach ist es leider nicht... (Nein, nein)

Outro(Chords are not at the right place):

C a ab-a d G

C a d

1:-----------------------------------------------------------------------|

2:--8--6--5--5^6^5---------5^8---8^10~~~---8b.10--------------------5----|

3:------------------5~~~------------------------------7^9--7~---5^7------|

4:-----------------------------------------------------------------------|

5:---------------------------------------------------------------------7-|

6:-----------------------------------------------------------------------|

G C

1:---------------------------------------------------------------|

2:-------------------------------------8------8------8--------13-|

3:-5/7--5--4--2--0------7b9r7-7--7-7/9----7/9----7/9----12^14----|

4:---------------------------------------------------------------|

5:---------------------------------------------------------------|

6:---------------------------------------------------------------|

a d G

1:------------------------------------------16/17------16/17----13--12-----------------|

2:--15b17r15^13-----------------------------16/17--17--16/17------------15--13^12------|

3:--------------^14--12--14------------------------17------------------------------12~-|

4:-------------------------------------------------------------------------------------|

5:-------------------------------------------------------------------------------------|

6:-------------------------------------------------------------------------------------|

C a d

rake

1:-----------------------------------------------------------------15-------x--20--20b22.-|

2:--------13-13--15b17--15b17--15b17--15b17-------------------------------17--------------|

3:--12^14-------------------------------------12--17-14---14^17^14------17----------------|

4:---------------------------------------------------------------------x------------------|

5:----------------------------------------------------------------------------------------|

6:----------------------------------------------------------------------------------------|

G

1:------------------------------|

2:----------------8-----8-------|

3:---7b9r7--7-/9-----9-----9/7--|

4:------------------------------|

5:------------------------------|

6:------------------------------|

C a ab-a d G

C a ab-a d G

****************************************************

*This Tab was downloaded from www.Debil-Tabs.de.vu *

****************************************************

Get this song at:  amazon.com sheetmusicplus.com

Share your thoughts

0 Comments found