Days of The New

Days of The New - Words guitar tab

Author/Artist: Days of the New

Title: Words

Album: Days of the New 3

Transcribed by: Ben McDowell

Email: bmcdowel@ihug.co.nz

Tuning: Db Ab Db Gb Bb Eb

Any corrections please email me.

------------------------------------------------------------------------------

------------------------------------------------------------------------------

-----7---6h7p6----------------------------------------------------------------

---7-----------9-7------------------------------------------------------------

-0----------------------------------------------------------------------------

------------------------------------------------------------------------------

------------------------------------------------------------------------------

------------------------------------------------------------------------------

------------------------------------------------------------------------------

-0----------0------------0------------0------------0-------------0----------0-

-0----------0------------0------------0------------0-------------0----------0-

-0---x-x-3b-0-x-x-x-x-3b-0-x-x-x-x-3b-0-x-x-x-3b-0-0-------------0---x-x-3b-0-

------------------------------------------------------------------------------

------------------------------------------------------------------------------

---------------------------------------------------5--------------------------

------------0------------0------------0------------5-------------0------------

------------0------------0------------0------------3-------------0------------

-x-x-x-x-3b-0-x-x-x-x-3b-0-x-x-x-x-3b-0-x-x-x-3b-0---------------0---x-x-3b-x-

------------------------------------------------------------------------------

------------------------------------------------------------------------------

------------------------------------------------------------------------------

-0------------0------------0------------0-----------0-----------0-----------0-

-0------------0------------0------------0-----------0-----------0-----------0-

-0-x-x-x-x-3b-0-x-x-x-x-3b-0-x-x-x-3b-0-0------3b-0-0------3b-0-0------3b-0-0-

------------------------------------------------------------------------------

------------------------------------------------------------------------------

------------------------------------------------------------------------------

------0------------------3v-----0----------------------------0----------------

------0--------------3h5--------0--------------3h5-x-x-3h5---0----------------

-3b-0-0-0-0-3b-0-x-x------------0-0-0-3b-0-x-x---------------0-0-0-3b-0-x-x---

------------------------------------------------------------------------------

------------------------------------------------------------------------------

------------------------------------------------------------------------------

-----3v---0--------------3p0-3p0--------0-0-0-3--0-x-x-----3v----0-0-0-3--0---

-3h5------0----------------------3p0----0-0-0-3--0-x-x-3h5-------0-0-0-3--0---

----------0-0-0-3b-0-x-x----------------0-0-0-3--0-x-x-----------0-0-0-3--0---

------------------------------------------------------------------------------

------------------------------------------------------------------------------

------------------------------------------------------------------------------

-x-x----------------0-0-0-3--0-3h5p3p0-3p0------------------------------------

-x-x-3h5-x-x-3h5----0-0-0-3--0-------------3p0--3h5p3p0-3p0-------------------

-x-x----------------0-0-0-3--0------------------------------5p3-3h5p3p0-------

------------------------------------------------------------------------------

------------------------------------------------------------------------------

------------------------------------------------------------------------------

------------------------------------------------------------------------------

------------------------------------------------------------------------------

-3h5p3p0----------------------------------------------------------------------

------------------------------------------------------------------------------

------------------------------------------------------------------------------

-2-2-2-2-2-2-2-5---4-4-4-4-4-4-4-4---5-5-5-5-5-5-5-5---5-5-5-5-5-5-5-4--------

-0-0-0-0-0-0-0-0---0-0-0-0-0-0-0-0---0-0-0-0-0-0-0-0---0-0-0-0-0-0-0-0--------

-0-0-0-0-0-0-0-3---2-2-2-2-2-2-2-2---3-3-3-3-3-3-3-3---3-3-3-3-3-3-3-2--------

-0-0-0-0-0-0-0-0---0-0-0-0-0-0-0-0---0-0-0-0-0-0-0-0---0-0-0-0-0-0-0-0--------

------------------------------------------------------------------------------

------------------------------------------------------------------------------

-2-2-2-2-2-2-2-5---4-4-4-4-4-4-4-4---10-10-10-10-10-10-10-10----10-10-10-10---

-0-0-0-0-0-0-0-0---0-0-0-0-0-0-0-0---0--0--0--0--0--0--0--0-----0--0--0--0----

-0-0-0-0-0-0-0-3---2-2-2-2-2-2-2-2---8--8--8--8--8--8--8--8-----8--8--8--8----

-0-0-0-0-0-0-0-0---0-0-0-0-0-0-0-0---0--0--0--0--0--0--0--0-----0--0--0--0----

------------------------------------------------------------------------------

------------------------------------------------------------------------------

-10-10-10-10------------------------------------------------------------------

-0--0--0--0-------------------------------------------------------------------

-8--8--8--8-------------------------------------------------------------------

-0--0--0--0-------------------------------------------------------------------

------------------------------------------------------------------------------

------------------------------------------------------------------------------

------------------------------------------------------------------------------

-0-------------------------0-------------------------0------------------------

-0-------------------------0-------------------------0------------------------

-0-0-0-3b-0-x-x-0-0-3b-0-0-0-0-0-3b-0-x-x-0-0-3b-0-0-0-0-0-3b-0-x-x-0-0-3b-0--

I will run for you

------------------------------------------------------------------------------

------------------------------------------------------------------------------

------------------------------------------------------------------------------

---0-------------------------0-------------------------0----------------------

---0-------------------------0-------------------------0----------------------

-0-0-0-0-3b-0-x-x-0-0-3b-0-0-0-0-0-3b-0-x-x-0-0-3b-0-0-0-0-0-3b-0-x-x-0-0-3b--

I will kill for you

------------------------------------------------------------------------------

------------------------------------------------------------------------------

------------------------------------------------------------------------------

-----0-------------------------0-------------------------0--------------------

-----0-------------------------0-------------------------0--------------3h5---

-0-0-0-0-0-3b-0-x-x-0-0-3b-0-0-0-0-0-3b-0-x-x-0-0-3b-0-0-0-0-0-3b-0-x-x-------

I think I'll answer

------------------------------------------------------------------------------

------------------------------------------------------------------------------

------------------------------------------------------------------------------

-3v----0--------------------------0------------------3v----0------------------

-------0--------------3h5-x-x-3h5-0--------------3h5-------0------------------

-------0-0-0-3b-0-x-x-------------0-0-0-3b-0-x-x-----------0-0-0-3b-0-x-x-----

straight for you too

------------------------------------------------------------------------------

------------------------------------------------------------------------------

------------------------------------------------------------------------------

-3p0-3p0-----0------------------3v----0--------------------------0------------

---------3p0-0--------------3h5-------0--------------3h5-x-x-3h5-0------------

-------------0-0-0-3b-0-x-x-----------0-0-0-3b-0-x-x-------------0-0-0-3b-0---

I will stand for you

------------------------------------------------------------------------------

------------------------------------------------------------------------------

------------------------------------------------------------------------------

---------3v----0--------------3p0-3p0-----------------------------------------

-----3h5-------0----------------------3p0-------------------------------------

-x-x-----------0-0-0-3b-0-x-x-------------------------------------------------

------------------------------------------------------------------------------

------------------------------------------------------------------------------

------------------------------------------------------------------------------

-5-5-5-5-0-3-0-3-0-0-0-----x----x---------5-5-5-5-0-3-0-3---------------------

-5-5-5-5-0-3-0-3-0-0-0-----x----x---------5-5-5-5-0-3-0-3---------------------

-5-5-5-5-0-3-0-3-0-0-0-----x----x---------5-5-5-5-0-3-0-3---------------------

I'm choosing left from right Decisions decisions

------------------------------------------------------------------------------

------------------------------------------------------------------------------

------------------------------------------------------------------------------

-5-5-5-5-0-3-0-3-0-0-0-----x----x---------5-5-5-5-0-3-0-0---------------------

-5-5-5-5-0-3-0-3-0-0-0-----x----x---------5-5-5-5-0-3-0-0----3h5p3p0-3p0------

-5-5-5-5-0-3-0-3-0-0-0-----x----x---------5-5-5-5-0-3-0-0----------------5p0--

And I hope I will make it right The silent decision

------------------------------------------------------------------------------

------------------------------------------------------------------------------

------------------------------------------------------------------------------

-----------------------------------------0------------------------------------

-3h5p3p0-3p0-----3h5p3p0-3p0-----3h5p3p0--------------------------------------

-------------5p0-------------5p0------------012------------------------------

------------------------------------------------------------------------------

------------------------------------------------------------------------------

-2-2-2-2-2-2-2-5---4-4-4-4-4-4-4-4---5-5-5-5-5-5-5-5---5-5-5-5-5-5-5-4--------

-0-0-0-0-0-0-0-0---0-0-0-0-0-0-0-0---0-0-0-0-0-0-0-0---0-0-0-0-0-0-0-0--------

-0-0-0-0-0-0-0-3---2-2-2-2-2-2-2-2---3-3-3-3-3-3-3-3---3-3-3-3-3-3-3-2--------

-0-0-0-0-0-0-0-0---0-0-0-0-0-0-0-0---0-0-0-0-0-0-0-0---0-0-0-0-0-0-0-0--------

------------------------------------------------------------------------------

------------------------------------------------------------------------------

-2-2-2-2-2-2-2-5---4-4-4-4-4-4-4-4---10-10-10-10-10-10-10-10----10-10-10-10---

-0-0-0-0-0-0-0-0---0-0-0-0-0-0-0-0---0--0--0--0--0--0--0--0-----0--0--0--0----

-0-0-0-0-0-0-0-3---2-2-2-2-2-2-2-2---8--8--8--8--8--8--8--8-----8--8--8--8----

-0-0-0-0-0-0-0-0---0-0-0-0-0-0-0-0---0--0--0--0--0--0--0--0-----0--0--0--0----

------------------------------------------------------------------------------

------------------------------------------------------------------------------

-10-10-10-10------------------------------------------------------------------

-0--0--0--0-------------------------------------------------------------------

-8--8--8--8-------------------------------------------------------------------

-0--0--0--0-------------------------------------------------------------------

------------------------------------------------------------------------------

------------------------------------------------------------------------------

-----7-------5-------2--------------------------------------------------------

---7---7---5---5---2---2-----6-------5-----5-------5--------------------------

-5-------3-------0---------6---6---5-----5---5---5---5------------------------

-------------------------6-------5-----5-------5-------0-3-0-3----------------

Well what the fuck

------------------------------------------------------------------------------

------------------------------------------------------------------------------

-----7-------5-------2--------------------------------------------------------

---7---7---5---5---2---2-----6-------5-----5-------5--------------------------

-5-------3-------0---------6---6---5-----5---5---5---5------------------------

-------------------------6-------5-----5-------5-------0-3-0-3----------------

Well what the fuck

------------------------------------------------------------------------------

------------------------------------------------------------------------------

-----7-------5-------2--------------------------------------------------------

---7---7---5---5---2---2-----6-------5-----5-------5--------------------------

-5-------3-------0---------6---6---5-----5---5---5---5------------------------

-------------------------6-------5-----5-------5-------0-3-0-3----------------

I can't find my will Well what the fuck

------------------------------------------------------------------------------

------------------------------------------------------------------------------

-----7-------5-------2--------------------------------------------------------

---7---7---5---5---2---2-----6-------5-----5-------5--------------------------

-5-------3-------0---------6---6---5-----5---5---5---5------------------------

-------------------------6-------5-----5-------5-------0-3-0-3----------------

I can't seem to chill Well what the fuck

------------------------------------------------------------------------------

------------------------------------------------------------------------------

-----7-------5-------2--------------------------------------------------------

---7---7---5---5---2---2-----6-------5-----5-------5--------------------------

-5-------3-------0---------6---6---5-----5---5---5---5------------------------

-------------------------6-------5-----5-------5-------0-3-0-3----------------

Why don't I just sit still Well what the fuck

------------------------------------------------------------------------------

------------------------------------------------------------------------------

-----7-------5-------2--------------------------------------------------------

---7---7---5---5---2---2-----6-------5-----5-------5--------------------------

-5-------3-------0---------6---6---5-----5---5---5---5------------------------

-------------------------6-------5-----5-------5-------0-3-0-3----------------

Cause I'd rather be alone Well what the fuck

------------------------------------------------------------------------------

------------------------------------------------------------------------------

-2-2-2-2-2-2-2-5---4-4-4-4-4-4-4-4---5-5-5-5-5-5-5-5---5-5-5-5-5-5-5-4--------

-0-0-0-0-0-0-0-0---0-0-0-0-0-0-0-0---0-0-0-0-0-0-0-0---0-0-0-0-0-0-0-0--------

-0-0-0-0-0-0-0-3---2-2-2-2-2-2-2-2---3-3-3-3-3-3-3-3---3-3-3-3-3-3-3-2--------

-0-0-0-0-0-0-0-0---0-0-0-0-0-0-0-0---0-0-0-0-0-0-0-0---0-0-0-0-0-0-0-0--------

------------------------------------------------------------------------------

------------------------------------------------------------------------------

-2-2-2-2-2-2-2-5---4-4-4-4-4-4-4-4---10-10-10-10-10-10-10-10----10-10-10-10---

-0-0-0-0-0-0-0-0---0-0-0-0-0-0-0-0---0--0--0--0--0--0--0--0-----0--0--0--0----

-0-0-0-0-0-0-0-3---2-2-2-2-2-2-2-2---8--8--8--8--8--8--8--8-----8--8--8--8----

-0-0-0-0-0-0-0-0---0-0-0-0-0-0-0-0---0--0--0--0--0--0--0--0-----0--0--0--0----

------------------------------------------------------------------------------

------------------------------------------------------------------------------

-10-10-10-10------------------------------------------------------------------

-0--0--0--0-------------------------------------------------------------------

-8--8--8--8-------------------------------------------------------------------

-0--0--0--0-------------------------------------------------------------------

------------------------------------------------------------------------------

------------------------------------------------------------------------------

------------------------------------------------------------------------------

-0-0-0-3-0-x-x-0-0-3------0-0-0-3-0-x-x-0-0-3-----0------------------3v-------

-0-0-0-3-0-x-x-0-0-3------0-0-0-3-0-x-x-0-0-3-----0--------------3h5----------

-0-0-0-3-0-x-x-0-0-3------0-0-0-3-0-x-x-0-0-3-----0-0-0-3b-0-x-x--------------

Tell me what to do Ask me what to do You don't know me mother

------------------------------------------------------------------------------

------------------------------------------------------------------------------

------------------------------------------------------------------------------

-0--------------------------------0-0-0-3-0-x-x-0-0-3-------0-0-0-3-0-x-x-0---

-0--------------3h5-x-x-3h5-------0-0-0-3-0-x-x-0-0-3-------0-0-0-3-0-x-x-0---

-0-0-0-3b-0-x-x-------------------0-0-0-3-0-x-x-0-0-3-------0-0-0-3-0-x-x-0---

fucker Force me till I do the sadness I won't do

------------------------------------------------------------------------------

------------------------------------------------------------------------------

------------------------------------------------------------------------------

-0-3-----0------------------3v-----0------------------------------------------

-0-3-----0--------------3h5--------0--------------3h5-x-x-3h5-----------------

-0-3-----0-0-0-3b-0-x-x------------0-0-0-3b-0-x-x-----------------------------

------------------------------------------------------------------------------

------------------------------------------------------------------------------

------------------------------------------------------------------------------

-5-5-5-5-0-3-0-3-0-0-0-----x----x---------5-5-5-5-0-3-0-3---------------------

-5-5-5-5-0-3-0-3-0-0-0-----x----x---------5-5-5-5-0-3-0-3---------------------

-5-5-5-5-0-3-0-3-0-0-0-----x----x---------5-5-5-5-0-3-0-3---------------------

I'm choosing left from right Decisions decisions

------------------------------------------------------------------------------

------------------------------------------------------------------------------

------------------------------------------------------------------------------

-5-5-5-5-0-3-0-3-0-0-0-----x----x---------5-5-5-5-0-3-0-0---------------------

-5-5-5-5-0-3-0-3-0-0-0-----x----x---------5-5-5-5-0-3-0-0----3h5p3p0-3p0------

-5-5-5-5-0-3-0-3-0-0-0-----x----x---------5-5-5-5-0-3-0-0----------------5p0--

And I hope I will make it right The silent decision

------------------------------------------------------------------------------

------------------------------------------------------------------------------

------------------------------------------------------------------------------

-----------------------------------------0------------------------------------

-3h5p3p0-3p0-----3h5p3p0-3p0-----3h5p3p0--------------------------------------

-------------5p0-------------5p0----------------------------------------------

Get this song at:  amazon.com sheetmusicplus.com

Share your thoughts

0 Comments found