Days of The New

Days of The New - Where Are You? guitar tab

Author/Artist: Days Of The New

Title: Where Are You?

Album: Red

Transcribed by: Keith Nida

Email: KeithNida84@yahoo.com

Dropped D Tuning Down 1/2 Step

-|---------------------------------------------------------------------|------

-|---------------------------------------------------------------------|------

-|---------------------------------------------------------------------|------

-|---------------------------------------------------------------------|------

-|---------------------------------------------------------------------|------

-|--0-3--0-3--1--1--6--6--6--1--1-1--03-0-3--1-01-01--01--6--6--6--8--1|------

-|-----------------------------------------------------------|----------------

-|-----------------------------------------------------------|----------------

-|-----------------------------------------------------------|----------------

-|-----------------------------------------------------------|----------------

-|-----------------------------------------------------------|----------------

-|--0-3-0-3--1--1--6--6-6-1-1--1-03-03-03-1-01-01-01-6-6-6-6-|----------------

It's hard to let you go

-|----------------------------------------------------------------------------

-|----------------------------------------------------------------------------

-|----------------------------------------------------------------------------

-|--3--3--1--1--1--1--6--6--1--1--3--3--1--1----------------------------------

-|--3--3--1--1--1--1--6--6--1--1--3--3--1--1----------------------------------

-|--3--3--1--1--1--1--6--6--1--1--3--3--1--1----------------------------------

maybe its the show

-|----------------------------------------------------------------------------

-|----------------------------------------------------------------------------

-|----------------------------------------------------------------------------

-|--3--6--8-------------------------------------------------------------------

-|--3--6--8-------------------------------------------------------------------

-|--3--6--8-------------------------------------------------------------------

The powers in my hands, control is up to me

Get this song at:  amazon.com sheetmusicplus.com

Share your thoughts

0 Comments found