Days of The New

Days of The New - Whats Left For Me guitar tab

Date: Fri, 12 Jun 1998 22:14:02 -0500

From: ron

Subject: d/days_of_the_new/whats_left_for_me.tab

This is the tab for "What's left for me",

a song off of day's of the New's debut album.

Song title: "What's Left for Me?"

Album: Days of the New

Catalogue number: OPRD-30004

Band: Days of the New

Music and lyrics written by: Travis Meeks

Tabbed by: Brian Hogg

Tuning: Db-Ab-Db-Gb-Bb-Db(as usual)

part A

Db||----------------------------------------------------------||

Bb||--------6------------6----------------6------------6------||

Gb||-----7----7-------7----7-----------7----7-------7----7----||

Db||--7----7--------7---7-------7---7----7--------7---7-----7-||

Ab||----5---------5---------------5---5---------5---------5---||

Db||----------------------------------------------------------||

Db||----------------------------------------------------------||

Bb||-----------6-------------6---------------6----------------||

Gb||-------------7--------7----7-----------7----------7-------||

Db||--------8-----------8---8--------7---8----------7---7-8---||

Ab||------5---5-------5------------5---5----------5-----------||

Db||--6/7-----------------------------------------------------||

play part A again, along with part B

part B

Db||-------------------------------------||

Bb||-------------------------------------||

Gb||-------------------------------------||

Db||---7--0----7-7--0----0--3----0-0--3--||

Ab||-------------------------------------||

Db||---7--3----7-7--3----0--3----0-0--3--||

then||------------------||

||------------------||

||------------------||

||-5-3-2-0----------||

||---------3-0-3\0--||

||------------------||

next, play plart C alone

part C

Db||------------------------------------------------------||

Bb||------------------------------------------------------||

Gb||------------------------------------------------------||

Db||------0---3-------0---3-------0---3-------------------||

Ab||----0---0---0---0---0---0---0---0---0-------7/8~~~~~--||

Db||--3-----------3-----------3---------------------------||

then, part D

part D

Db||--------------------||

Bb||--------------------||

Gb||--------------------||

Db||--7---5---3---0-----||

Ab||--------------------||

Db||--7---5---3---0-----||

the verse is basically part E

part E

Db||----------------------------------------------||

Bb||---------6-----------6----------6-------------||

Gb||------7----7------7----7-----7---7------------||

Db||----7---7-------7---7------7---7--------------||

Ab||--5-----------5----------5--------------------||

Db||-------------------------------------8--7--6--||

finally, the chords for the chorus are:

chorus

Db||-------||

Bb||-6--6--||

Gb||-7--7--||

Db||-7--8--||

Ab||-5--5--||

Db||-------||

Lyrics:

Taken by surprise, by the size of my brain

Knowing all the time all the lies, all the games,

Thinking up a storm; when it storms, it's going to rain

Taking what's mine all the time, all the time

Take some for yourself

It's all good for something

And when there's no more to give,

The window will shine in the light

On what's left for me

Know in your mind that

you've got to remember your name

Staggering around, can't find a place to sit down;

Nothing suits my ass

Toast to some champagne of pain

I know you can bring us all a bottle

Remember the time when time was a friend,

And you could make him lend you a hand

Now there's a place where taking takes place,

And time just gets in your way.

That's it!

For comments, questions, or corrections,

E-mail me at ronjhogg@mail.airmail.net

OLGA rulz, Harry Fox Agency DOESN'T!!!

Get this song at:  amazon.com sheetmusicplus.com

Share your thoughts

0 Comments found