Days of The New

Days of The New - Weapon And The Wound guitar tab

From: "Matthew Cooper"

Subject: d/days_of_the_new/weapon_and_the_wound.tab

Date: Mon, 21 Jan 2002 15:45:56 +1100

Days of the new - weapon and the wound

transcribed by m2Fu

tune all Guitars (B E C# B G# C#)=20

so what has happened to travis meek and band???=20

i heard he fired his bandmates and they set up their own

days of the new ripoff called tantric........well whatever. the days of =

the new=20

legacy still lives on in dotn 1 and 2

weapon and the wound is a slow tempo song .......about 66bmp i think... =

not sure of the timing=20

probably odd signature..i couldnt care less about it actually cuz it =

kicks ass anyway

intro

|-----------------------------|----------------------------------|

|-----------------------------|----------------------------------|

|-------0-------------0-------|-------0-------------0-------0----|

|---0-----0---0---0-----0---0-|---0-----0---0---0----------------|

|-----0-----0-------0-----0---|-----0-----0-------0---0-3b4------|

|-0-------------0-------------|-0-------------0------------------|

|-----------------------------|--------------------------------------|

|-----------------------------|--------------------------------------|

|-------0-------0-----------0-|-------0-------0-------0--------------|

|---0---------------0---------|---0---------------0-------------2----|

|-----0---0-3b4-------0-3b4---|-----0---0-3b4-------0----------------|

|-0---------------0-----------|-0---------------0-------3b4-3b4------|

|--------------------------------|----------------------------------|

|--------------------------------|----------------------------------|

|-------0-------0-------0--------|-------0-------0-------0----------|

|---0---------------0------------|---0-------------0---2---0---0----|

|-----0---0-3b4-------0---0-3b4--|-----0---0-3b4-----0-------0------|

|-0---------------0--------------|-0--------------------------------|

this bit is harmonics...duh play it 6 times or something

|------------------------------------------------------------------------

|------------------------------------------------------------------------

|----------------------------------------------------------------=

|------------------------------------------------------

|-----------------------------------------------------

|----------------------------------------------------------------=

|------------------------------------------------------------------------= |

|------------------------------------------------------------------------= |

|-----------------------------------------------------------0----= |

|--------------------------------------------------------= |

|---------------------------------------------0-3b4------= |

|----------------------------------------------------------------= |

ok this is the pre-chorus

|-----------------------------|---------------------------------|

|---------1S3---3---------5S6-|---6---3S1---1p0-^1-3-1h3p1p0----|

|---0---------------4S5-------|-----------------^0--------------|

|-----0-----------------------|-----------------^0--------------|

|-------0-----0---0-----0-----|-0---0-----0-----^0--------------|

|-0---------------------------|-----------------^0--------------|

|-------------0-------0-----0-|-------0------0-0-|-0-0-0-0--2-2----|

|-------3---------0-----0-----|---1-0-----^1-1-1-|-1-1-1-1--0-0----|

|---------0---------------0---|-----------^0-0-0-|-0-0-0-0--0-0----|

|---0-------0-------0---------|-----------^2-2-2-|-2-2-2-2--2-2----|

|-----0-----------------------|-----------^0-0-0-|-0-0-0-0--0------|

|-0-------------0-------------|-0-------0-^0-0-0-|-0-0-0-0--0------|

^---this means arpegiate the =

chord =20

these are the chords for the chorus

|-4-0-0--2-2-2-0--2-0-0-0-------------------|

|-0-0-0--0-1-0-0--0-0-1-1--^1--3-1h3p1p0----|

|-0-0-0--0-0-0-0--0-0-0-0--^0---------------|

|-4-2-0--0---2-0----0-0----^0---------------|

|--------0--------2-----3--^0---------------|

|--------0-----------------^0---------------|

SOLO------i didnt transcribe cuz it was too easy :D i'll leave that =

task too someone else

its based around the 6th and 8th frets though.

rest of song is variations of the above

questions, abuse etc direct to doodie_au@yahoo.com or icq 75102685

i transcribed this some time ago so u may find errors=20

i didnt indicate timing as usual so just listen to the song

....either way just have some fun with it

adios=20

Tablature Legend

----------------

h - hammer-on

p - pull-off

b - bend

- natural harmonic

Get this song at:  amazon.com sheetmusicplus.com

Share your thoughts

0 Comments found