Days of The New

Days of The New - Touch peel and stand bass tab

Sorry about that last time, I fixed it now.

Touch Peel + Stand

By: Days of the New

Tabbed out by: Joe Gallo (imbatmanzz@aol.com)

Put font as Times New Roman

Tuning: Drop D and down 1/2 step (low to high Db Ab Db Gb)

Intro (Also the Chorus!)

1:-|----------------------------------------------------------|

2:-|----------------------------------------------------------|

3:-|-3/5-5-5--3/5-5-5-5--5------------------------------------|

4:-|----------------------------3/5-5-5--3/5-5-5-5--5---------|

(Yes I've finally found a reason.........)

| repeat 2ce in intro |

3:-|---------------------|-2/3-3---------------------|---|

4:-|-0/3-3-3-0-3-3-3-3-3-|-------5-3-0--0-0-3-5-3-5--|-0-|

Verse

1:-|---------------------------------------------------------------|

2:-|---------------------------------------------------------------|

3:-|-------------------------------------2/3---2-3-3---------------|

4:-|-3-5-3-0-3-5-0----0-0-3-5-6-5-3-5-3------0-------0-0-3-5--6-5-3|

(Because I know how low to go................)

Bridge

1:-|----------------------------------------------------------|

2:-|----------------------------------------------------------|

3:-|----------------------------------------------------------|

4:-|-3-5-3-0-3-5-0---0-3-5-3-0-3--5-6-5-0-3-5-3--0-2-3-2-0-0--|

(ooooooooooooooooah)

I guess thats it!!!!!!!

Questions, Comments, Corrections, Requests, e-mail imbatmanzz@aol.com.

Thanks!!!

Your master,

Joe

Get this song at:  amazon.com sheetmusicplus.com

Share your thoughts

0 Comments found