Days of The New

Days of The New - The Real guitar tab

THE REAL

=================================================================

The Real

Original music and lrics

by: Travis Meeks

Transcribed by: Corey Murray

=================================================================

CGDFAD tuning

Intro: "Chords"

Gtr.1

|---0----0----0----0----|

|---3----0----0----3----|

|---0----0----4----0----|

|---0----0----0----0----|

|---0----3----5----0----|

|--------3----5---------|

This Rhythm guitar line is also played

during the "segue" of "Flight Response"

Intro Rhy.1

Gtr.2

|----------------------------------|

|-----0------0-----0-----0-----0---|

|-5^4----5^4---5^4---5^4---5^4-----|

|----------------------------------|

|----------------------------------|

|----------------------------------|

|----------------------------------|

|-----0-----0-----0----------------|

|-5^4---5^4---5^4---5^4------------|

|------------------------5---3 ^ 5-|

|----------------------------------|

|----------------------------------|

Intro Rhy.2

|----------------------------------|

|----------------------------------|

|------4^5---4^5---4^5---4^5---4^5-|

|-3--3-----3-----3-----3-----3-----|

|----------------------------------|

|----------------------------------|

|----------------------------------|

|----------------------------------|

|---4^5---4^5---4^5---4^5---4^5----|

|-3-----3-----3-----3-----3--------|

|----------------------------------|

|----------------------------------|

|----------------------------------|

|----------------------------------|

|------4^5---4^5---------4^5---4^5-|

|-0--0-----0-----0-(0)-0-----0-----|

|----------------------------------|

|----------------------------------|

|----------------------------------|

|----------------------------------|

|------4^5---4--5^4----------------|

|-3--3-----3--------5--3-5--------|

|----------------------------------|

|----------------------------------|

|----------------------------------|

|-----0-----0-----0-----0-----0----|

|----------------------------------|

|-3^5---3^5---3^5---3^5---3^5------|

|----------------------------------|

|----------------------------------|

Intro Ryh.3 1/4 bend

|-----------------------------------|

|-----0-----0-----0-----------------|

|-------------------------5---------|

|-3^5---3^5---3^5---3--5------------|

|-----------------------------------|

|-----------------------------------|

Repeat Intro Rhy.1 & 2.

Now play the verse...

Verse:

Gtr.1&2

|---0------------------------------

|---0-------------------0----------

|---0---------------0--------------

|---5-----------------0------------

|---5----5 / 3--0------------------

|----------------------------------

Repeat 3 times...

On fourth...

----------------------------------|

----------------------------------|

----------0--------------0--------|

----------------------------------|

---5 / 7--5 / 3---5 / 7--5 / 3----|

----------------------------------|

Chorus: "Chords"

|---0----0----0----0----|

|---3----0----0----3----|

|---0----0----4----0----|

|---0----0----0----0----|

|---0----3----5----0----|

|--------3----5---------|

Violin solo(arr.for gtr.)

|-5^7---8----8--8-8-8-5-5--5--5-5--

|----------------------------------

|----------------------------------

|----------------------------------

|----------------------------------

|----------------------------------

-5^3--3---3---3^2-3--5^3^2--3^2^0-

----------------------------------

----------------------------------

----------------------------------

----------------------------------

----------------------------------

-8---8--8-8-8-5-5--5--5-5--5^3--3-

----------------------------------

----------------------------------

----------------------------------

----------------------------------

----------------------------------

-3--5^3^2-0---0-------------------

-------------------3--0---0-2-3---

----------------------------------

----------------------------------

----------------------------------

----------------------------------

----------------------------------

-2^32^0--2^0-----0---0^2-3-3-3^5-7

--------------0-------------------

----------------------------------

----------------------------------

----------------------------------

---------5-7^5-8---8--8-8-8-5-5--5

-7^5^3-7--------------------------

----------------------------------

----------------------------------

----------------------------------

----------------------------------

-5-5--5^3--3--3--3^2-3--5^3^2-----

----------------------------------

----------------------------------

----------------------------------

----------------------------------

----------------------------------

----3^2^0^2----|

---------------|

---------------| Repeat this until fade...

---------------|

---------------|

---------------|

Get this song at:  amazon.com sheetmusicplus.com

Share your thoughts

0 Comments found