Days of The New

Days of The New - The Character The Threat guitar tab

THE CHARACTER/ THE THREAT

================================================================================

Title : The Character/The Threat

Artist : Days of the New

Album : Days of the New Live

================================================================================

Legend

-----

h = hammer-on

p = pull-off

b = bend

r = bend release

/ = slide up/down

= natural harmonic

[5] = artifical harmonic

~ = vibrato

tr = trill

Db|-------------|-------------|-------------|-------------|-------------

Bb|-------------|-------------|-------------|-------------|-------------

Gb|-------------|-------------|-------------|-------------|-------------

Db|-----0-----0-|-----0-----0-|-----0-----0-|-----0-----7-|-----0-----0-

Ab|---0-----0---|---0-----0---|---0-----0---|---0-----0---|---0-----0---

Db|-0-----0-----|-6-----6-----|-0-----0-----|-6-----6-----|-0-----0-----

Db-|-------------|-------------|-------------||-----------------|-------

Bb-|-------------|-------------|-------------||-----------------|-------

Gb-|-------------|-------------|-------------||-----------------|-------

Db-|-----0-------|-----0-----0-|-----0-----7-||-----0---7-------|-----7/

Ab-|---0-----0---|---0-----0---|---0-----0---||---0---0---0---0-|---0---

Db-|-6-----6---6~|-0-----0-----|-6-----6-----||-0-----------0---|-0-----

Db|-----------|--------------------|-----------------|-----------------

Bb|-----------|----5-6-5h6p5-------|-----------------|-----------------

Gb|-----------|--------------7-----|-----------------|-----------------

Db|-8-----0---|-8--------------8-7-|-----0---7-------|-----7/8-----0---

Ab|-----0---0-|--------------------|---0---0---0---0-|---0-------0---0-

Db|---0-------|--------------------|-0-----------0---|-0-------0-------

Db-|------------------------|-----------------|-----------------|------

Bb-|------------------------|-----------------|-----------------|----5-

Gb-|------------------------|-----------------|-----------------|------

Db-|-8--------7-6---7-6h7p6-|-----0---7-------|-----7/8-----0---|-8----

Ab-|----5-7-8-----8---------|---0---0---0---0-|---0-------0---0-|------

Db-|------------------------|-0-----------0---|-0-------0-------|------

Rhy. Fig. 1

Db|---------------|-----------------|-----------------|---------------||--

Bb|-6-5h6p5-------|-----------------|-----------------|---------------||*-

Gb|---------7-----|-----------------|-----------------|---------------||--

Db|-----------8-7-|-----0---7-------|-----7/8-----0---|-8--------7-6--||--

Ab|---------------|---0---0---0---0-|---0-------0---0-|----5-7-8------||*-

Db|---------------|-0-----------0---|-0-------0-------|---------------||--

Repeat 8x

Db|-----------------|------------------||-----------------|-------------

Bb|-----------------|-----------------*||-----------------|-------------

Gb|-----------2-----|------------------||-----------------|-------------

Db|-----0---0-------|-0---0-----0---0--||-----0---7-------|-----7/8-----

Ab|---0---0-------0-|---0---0-0---0---*||---0---0---0---0-|---0-------0-

Db|-0-----------0---|------------------||-0-----------0---|-0-------0---

Db|-----|--------------------|-----------------|-----------------|------

Bb|-----|----5-6-5h6p5-------|-----------------|-----------------|------

Gb|-----|--------------7-----|-----------------|-----------------|------

Db|-0---|-8--------------8-7-|-----0---7-------|-----7/8-----0---|-8----

Ab|---0-|--------------------|---0---0---0---0-|---0-------0---0-|----5-

Db|-----|--------------------|-0-----------0---|-0-------0-------|------

Db|---------------|-----------------|-----------------|----------------

Bb|---------------|-----------------|-----------------|----5-6-5h6p5---

Gb|---------------|-----------------|-----------------|--------------7-

Db|-----7-6---7-6-|-----0---7-------|-----7/8-----0---|-8--------------

Ab|-7-8-----8-----|---0---0---0---0-|---0-------0---0-|----------------

Db|---------------|-0-----------0---|-0-------0-------|----------------

Rhy. Fig. 1

Db|-----|-----------------|-----------------|---------------||----------

Bb|-----|-----------------|-----------------|---------------||*---------

Gb|-----|-----------------|-----------------|---------------||----------

Db|-8-7-|-----0---7-------|-----7/8-----0---|-8--------7-6--||------0---

Ab|-----|---0---0---0---0-|---0-------0---0-|----5-7-8------||*---0---0-

Db|-----|-0-----------0---|-0-------0-------|---------------||--0-------

Repeat 8x

Db|---------|------------------||-----------------|-----------------|---

Bb|---------|-----------------*||-----------------|-----------------|---

Gb|---2-----|------------------||-----------------|-----------------|---

Db|-0-------|-0---0-----0---0--||-----0---7-------|-----7/8-----0---|-8-

Ab|-------0-|---0---0-0---0---*||---0---0---0---0-|---0-------0---0-|---

Db|-----0---|------------------||-0-----------0---|-0-------0-------|---

Db------------------|-----------------|-----------------|--------------

Bb--5-6-5h6p5-------|-----------------|-----------------|--------------

Gb------------7-----|-----------------|-----------------|--------------

Db--------------8-7-|-----0---7-------|-----7/8-----0---|-8--------7-6-

Ab------------------|---0---0---0---0-|---0-------0---0-|----5-7-8-----

Db------------------|-0-----------0---|-0-------0-------|--------------

Db|-------|-----------------|-----------------|--------------------|---

Bb|-------|-----------------|-----------------|----5-6-5h6p5-------|---

Gb|-------|-----------------|-----------------|--------------7-----|---

Db|---7-6-|-----0---7-------|-----7/8-----0---|-8--------------8-7-|---

Ab|-8-----|---0---0---0---0-|---0-------0---0-|--------------------|---

Db|-------|-0-----------0---|-0-------0-------|--------------------|-0-

Db|---------------|-----------------|---------------|------------|-----

Bb|---------------|-----------------|---------------|------------|-----

Gb|---------------|-----------------|---------------|------------|-----

Db|---0---7-------|-----7/8-----0---|-8--------7-6~-|-------7-6~-|-----

Ab|-0---0---0---0-|---0-------0---0-|----5-7-8------|-5-7-8------|-5-7-

Db|-----------0---|-0-------0-------|---------------|------------|-----

Rhy. Fig 2

Db|--------|------------||-------------------------||-------------------

Bb|--------|------------||-------------------------||-------------------

Gb|--------|------------||-------------------------||-7-x-5-x-----------

Db|---7-6~-|-------7-6~-||-------------------------||-7-x-5-x-6-x-5-x-3-

Ab|-8------|-5-7-8------||-5-x-3-x-----------------||-5-x-3-x-6-x-5-x-3-

Db|--------|------------||---------6-x-5-x-3-5-3-0-||---------6-x-5-x-3-

Bass guitar

Db|-------|-------------------------|-----------------------|-----------

Bb|-------|-------------------------|-----------------------|-----------

Gb|-------|-5-x---------------------|-5-x-------------------|-----------

Db|-5-3-0-|-5-x-6-x-5-x-3-0-3-5-3-0-|-5-x-6-x-5-x-3--0-3-5--|-6-x-5-x-3-

Ab|-5-3-0-|-3-x-6-x-5-x-3-0-3-5-3-0-|-3-x-6-x-5-x-3--0-3-5--|-6-x-5-x-3-

Db|-5-3-0-|-----6-x-5-x-3-0-3-5-3-0-|-----6-x-5-x-3--0-3-5--|-6-x-5-x-3-

Db|---------------|-------------------------|-------------------------|-

Bb|---------------|-------------------------|-------------------------|-

Gb|---------------|-7-x-5-x-----------------|-5-x---------------------|-

Db|-0-3-0-3-5-3-0-|-7-x-5-x-6-x-5-x-3-5-3-0-|-5-x-6-x-5-x-3-0-3-5-3-0-|-

Ab|-0-3-0-3-5-3-0-|-5-x-3-x-6-x-5-x-3-5-3-0-|-3-x-6-x-5-x-3-0-3-5-3-0-|-

Db|-0-3-0-3-5-3-0-|---------6-x-5-x-3-5-3-0-|-----6-x-5-x-3-0-3-5-3-0-|-

Db|-----------------------|-----------------||-------------------------

Bb|-----------------------|-----------------||-------------------------

Gb|-5-x-------------------|-----------------||-------------------------

Db|-5-x-6-x-5-x-3--0-3-5--|-6-x-5-x-3-------||-------------------------

Ab|-3-x-6-x-5-x-3--0-3-5--|-6-x-5-x-3-------||-5-x-3-x-----------------

Db|-----6-x-5-x-3--0-3-5--|-6-x-5-x-3-------||---------6-x-5-x-3-5-3-0-

Bass guitar

Db-|-------------------------|-----------------------|-----------------

Bb-|-------------------------|-----------------------|-----------------

Gb-|-------------------------|-----------------------|-----------------

Db-|-------------------------|-----------------------|-----------------

Ab-|-3-x---------------------|-3-x-------------------|-----------------

Db-|-----6-x-5-x-3-0-3-5-3-0-|-----6-x-5-x-3--0-3-5--|-6-x-5-x-3-0-3-0-

Db|---------|-------------------------|-------------------------|-------

Bb|---------|-------------------------|-------------------------|-------

Gb|---------|-------------------------|-------------------------|-------

Db|---------|-------------------------|-------------------------|-------

Ab|---------|-5-x-3-x-----------------|-3-x---------------------|-3-x---

Db|-3-5-3-0-|---------6-x-5-x-3-5-3-0-|-----6-x-5-x-3-0-3-5-3-0-|-----6-

Db|-----------------|-----------------------||-------------|-----------

Bb|-----------------|-----------------------||-------------|-----------

Gb|-----------------|-----------------------||-5-5---------|-7-x-5-x---

Db|-----------------|-----------------------||-5-5---5-5---|-7-x-5-x-6-

Ab|-----------------|-----------------------||-3-3---5-5---|-5-x-3-x-6-

Db|-x-5-x-3--0-3-5--|-6-x-5-x-3-0-3-0-5-3-0-||-------5-5---|---------6-

Db|---------------|-------------|--------------------|------------------

Bb|---------------|-------------|--------------------|------------------

Gb|---------------|-5-5---------|--------------------|------------------

Db|-x-5-x-3-5-3-0-|-5-5---5-5---|-6-x-5-x-3--x-x-3-3-|-6-x-5-x-3--------

Ab|-x-5-x-3-5-3-0-|-3-3---5-5---|-6-x-5-x-3--x-x-3-3-|-6-x-5-x-3--------

Db|-x-5-x-3-5-3-0-|-------5-5---|-6-x-5-x-3--x-x-3-3-|-6-x-5-x-3--0-3-3~

Db|---||-------------------------|-------------------------|-----------

Bb|---||-------------------------|-------------------------|-----------

Gb|---||-7-x-5-x-----------------|-5-x---------------------|-5-x-------

Db|---||-7-x-5-x-6-x-5-x-3-5-3-0-|-5-x-6-x-5-x-3-0-3-5-3-0-|-5-x-6-x-5-

Ab|---||-5-x-3-x-6-x-5-x-3-5-3-0-|-3-x-6-x-5-x-3-0-3-5-3-0-|-3-x-6-x-5-

Db|-3~||---------6-x-5-x-3-5-3-0-|-----6-x-5-x-3-0-3-5-3-0-|-----6-x-5-

Db|-------------|-------------------------|-------------------------|---

Bb|-------------|-------------------------|-------------------------|---

Gb|-------------|-------------------------|-7-x-5-x-----------------|-5-

Db|-x-3--0-3-5--|-6-x-5-x-3-0-3-0-3-5-3-0-|-7-x-5-x-6-x-5-x-3-5-3-0-|-5-

Ab|-x-3--0-3-5--|-6-x-5-x-3-0-3-0-3-5-3-0-|-5-x-3-x-6-x-5-x-3-5-3-0-|-3-

Db|-x-3--0-3-5--|-6-x-5-x-3-0-3-0-3-5-3-0-|---------6-x-5-x-3-5-3-0-|---

Db|-----------------------|-----------------------|-----------------||-

Bb|-----------------------|-----------------------|-----------------||-

Gb|-x---------------------|-5-x-------------------|-----------------||-

Db|-x-6-x-5-x-3-0-3-5-3-0-|-5-x-6-x-5-x-3--0-3-5--|-6-x-5-x-3-------||-

Ab|-x-6-x-5-x-3-0-3-5-3-0-|-3-x-6-x-5-x-3--0-3-5--|-6-x-5-x-3-------||-

Db|---6-x-5-x-3-0-3-5-3-0-|-----6-x-5-x-3--0-3-5--|-6-x-5-x-3-------||-

Bass guitar

Db|-------------------------|-------------------------|----------------

Bb|-------------------------|-------------------------|----------------

Gb|-------------------------|-------------------------|----------------

Db|-------------------------|-------------------------|----------------

Ab|-5-x-3-x-----------------|-3-x---------------------|-3-x------------

Db|---------6-x-5-x-3-5-3-0-|-----6-x-5-x-3-0-3-5-3-0-|-----6-x-5-x-3--

Db|--------|-------------------------|-------------------------|-------

Bb|--------|-------------------------|-------------------------|-------

Gb|--------|-------------------------|-------------------------|-------

Db|--------|-------------------------|-------------------------|-------

Ab|--------|-------------------------|-5-x-3-x-----------------|-3-x---

Db|-0-3-5--|-6-x-5-x-3-0-3-0-3-5-3-0-|---------6-x-5-x-3-5-3-0-|-----6-

Db|-------------------|-----------------------|-----------------------||-

Bb|-------------------|-----------------------|-----------------------||-

Gb|-------------------|-----------------------|-----------------------||-

Db|-------------------|-----------------------|-----------------------||-

Ab|-------------------|-3-x-------------------|-----------------------||-

Db|-x-5-x-3-0-3-5-3-0-|-----6-x-5-x-3--0-3-5--|-6-x-5-x-3-0-3-0-5-3-0-||-

Db|-------------|-------------------------|-------------|--------------

Bb|-------------|-------------------------|-------------|--------------

Gb|-5-5---------|-7-x-5-x-----------------|-5-5---------|--------------

Db|-5-5---5-5---|-7-x-5-x-6-x-5-x-3-5-3-0-|-5-5---5-5---|-6-x-5-x-3--x-

Ab|-3-3---5-5---|-5-x-3-x-6-x-5-x-3-5-3-0-|-3-3---5-5---|-6-x-5-x-3--x-

Db|-------5-5---|---------6-x-5-x-3-5-3-0-|-------5-5---|-6-x-5-x-3--x-

Db|-------|----------------|----------------|----------------|---------

Bb|-------|----------------|----------------|----------------|---------

Gb|-------|----------------|----------------|----------------|---------

Db|-x-3-3-|-6-x-5-x-3------|-6-x-5-x-3------|-6-x-5-x-3------|-0-------

Ab|-x-3-3-|-6-x-5-x-3------|-6-x-5-x-3------|-6-x-5-x-3------|-0-------

Db|-x-3-3-|-6-x-5-x-3------|-6-x-5-x-3------|-6-x-5-x-3------|-0-------

Db|---|-------------------|-------------------|-------------------|-----

Bb|---|-------------------|-------------------|-------------------|-----

Gb|---|-------------------|-------------------|-------------------|-----

Db|---|-3-0-----------0---|-3-0-----------0---|-3-0-----------0---|-3-0-

Ab|---|-----3-2-------0---|-----3-2-------0---|-----3-2-------0---|-----

Db|---|---------5-4-3-0---|---------5-4-3-0---|---------5-4-3-0---|-----

Db|---------------|----------|---------------------------------|-------

Bb|---------------|----------|---------------------------------|-------

Gb|---------------|----------|---------------------------------|-------

Db|-----3-0---5---|----------|-0-0-----------------------------|-0-0---

Ab|-3-2-----3-5---|----------|-0-0-----3-5-----3-5-----3-5-----|-0-0---

Db|-----------5---|------0-3-|-0-0-3-5-----3-5-----3-5-----3-5-|-0-0-3-

Db|-------------------------------|-------------------------------|-----

Bb|-------------------------------|-------------------------------|-----

Gb|-------------------------------|-------------------------------|-----

Db|-------------------5p3---------|-0-0---------------------------|-0-0-

Ab|---3-5-----3-5---------5-5p3---|-0-0-----3-5-----3-5-----3-----|-0-0-

Db|-5-----3-5-----3-5-----------5-|-0-0-3-5-----3-5-----3-5---0-3~|-0-0-

Db|--------------------------------|--------------------------------|---

Bb|--------------------------------|--------------------------------|---

Gb|--------------------------------|--------------------------------|---

Db|---------------------5p3--------|-3-0----------------------------|-3-

Ab|-----3-5-----3-5---------5-3----|-----3-2----------------2-3-4-5-|---

Db|-3-5-----3-5-----3-5---------5--|---------5-4-3-0--3-4-5---------|---

Db|------------------------------|--------------------------------|-----

Bb|------------------------------|--------------------------------|-----

Gb|------------------------------|--------------------------------|-----

Db|-0----------------------------|-3-0----------------------------|-3-0-

Ab|---3-2----------------2-3-4-5-|-----3-2----------------2-3-4-5-|-----

Db|-------5-4-3-0--3-4-5---------|---------5-4-3-0--3-4-5---------|-----

Db|----------------|----------|---------------------------------|-------

Bb|----------------|----------|---------------------------------|-------

Gb|----------------|----------|---------------------------------|-------

Db|-----3-0---5----|----------|-0-0-----------------------------|-0-0---

Ab|-3-2-----3-5----|----------|-0-0-----3-5-----3-5-----3-5-----|-0-0---

Db|-----------5----|------0-3-|-0-0-3-5-----3-5-----3-5-----3-5-|-0-0-3-

Db|-------------------------------|-------------------------------|-----

Bb|-------------------------------|-------------------------------|-----

Gb|-------------------------------|-------------------------------|-----

Db|-------------------5p3---------|-0-0---------------------------|-0-0-

Ab|---3-5-----3-5---------5-5p3---|-0-0-----3-5-----3-5-----3-----|-0-0-

Db|-5-----3-5-----3-5-----------5-|-0-0-3-5-----3-5-----3-5---0-3~|-0-0-

Get this song at:  amazon.com sheetmusicplus.com

Share your thoughts

0 Comments found