Days of The New

Days of The New - Take Me Back Then guitar tab

Author/Artist: Days Of The New

Title: Take Me Back Then

Album: Green

Transcribed by: Keith Nida

Email: KeithNida84@yahoo.com

Open F#m Tuning

6-1

C# F# C# F# A C#

-|--0--3--0---0--1------------------------------------------------------------

-|--0--0--2-/-3--0------------------------------------------------------------

-|--0--0--0---0--0------------------------------------------------------------

-|--0--3--2-/-3--1------------------------------------------------------------

-|--0--0--0---0--0------------------------------------------------------------

-|----------------------------------------------------------------------------

strum, listen for chord changes.

-|----------------------------------------------------------------------------

-|----------------------------------------------------------------------------

-|----------------------------------------------------------------------------

-|--------0---0-------0---0---rpt---------------------------------------------

-|------0---0-------0---0-----------------------------------------------------

-|--3-5---------3-5-----------------------------------------------------------

verse. nothing wrong im just wasted

Get this song at:  amazon.com sheetmusicplus.com

Share your thoughts

0 Comments found