Days of The New

Days of The New - Special Guide guitar tab

Days Of The New

Tabbed by Keith Nida

Special Guide

Dropped D tuning

Intro part

E-----------------------------------------------------------------------

B-----------------------------------------------------------------------

G---------------------7-------------------------------------------------

D---0--------0--0--0--7---------------------3--0--0--0------------------

A---0--5--3--0--0--0--5h5--5--3h5--5--3--0--3--0--0--0--5--3h5--5--3----

D---0--------0--0--0------------------------3--0--0--0------------------

E----------------------------|------------------------------------------

B----------------------------|------------------------------------------

G----------------------------|------------------------------------------

D----------------5--0--0--0--|------------------------------------------

A---h5--5--3--0--5--0--0--0--|------------------------------------------

D----------------5--0--0--0--|------------------------------------------

Main riff

E----------------------------------------|------------------------------

B----------------------------------------|------------------------------

G----------------------------------------|------------------------------

D---7--7--7-------5-----7--7--7----5-----|------------------------------

A---5--5--5p0--0--3--0--5--5--5p0--3--0--|------------------------------

D----------------------------------------|------------------------------

Verse riff

E---------------------------------------|-------------------------------

B---------------------------------------|-------------------------------

G------------7-----------7-----------7--|-------------------------------

D---0--0--0--7--0--0--0--7--0--0--0--7--|-------------------------------

A---0--0--0--5--0--0--0--5--0--0--0--5--|-------------------------------

D---0--0--0-----0--0--0-----0--0--0-----|-------------------------------

"I'm gonna make it"

E-----------------------------||----------------|-----------------------

B-----------------------------||----------------|-----------------------

G----------------------------*||----------------|-----------------------

D---7-----7------7-----7--5--*||-------------5--|-----------------------

A---5--0--5--8^--5--0--5--3---||--3-----3h5--3--|-----------------------

D-----------------------------||-----5----------|-----------------------

"I turn it away"

E----------------------------------------------------||-----------|-----

B----------------------------------------------------||-----------|-----

G---------------------------------------------------*||-----------|-----

D---3-----3-----------------3-----3-----------------*||--0--3--3--|-----

A------5-----5--3-----3--5-----5-----5--------3--5---||--0--3--3--|-----

D------------------5--------------------3--5---------||--0--3--3--|-----

Fast riff

E-----------------------------------------------------------------------

B-----------------------------------------------------------------------

G---7--7-------------------------------5--5-----------------------------

D---7--7----------------------------3--5--5-----------------------------

A---5--5--3--3-----3-----3--0--3h5-----3--3--3--3-----3-----3h5--3------

D---------------5-----5----------------------------5-----5--------------

E-----------------------------------------------------------------------

B-----------------------------------------------------------------------

G-----------------------------------------------------------------------

D---2--2----------------------------3--5-------5-------5-------5--------

A---3--3--3--3-----3-----3--0--3h5-----3p0--0--3p0--0--3p0--0--3p0------

D---------------5-----5-------------------------------------------------

E---------|-------------------------------------------------------------

B---------|-------------------------------------------------------------

G---------|-------------------------------------------------------------

D------7--|-------------------------------------------------------------

A---0--5--|-------------------------------------------------------------

D---------|-------------------------------------------------------------

Get this song at:  amazon.com sheetmusicplus.com

Share your thoughts

0 Comments found