Days of The New

Days of The New - Running Knees guitar tab

RUNNING KNEES

===============================================================================

Running Knee's by Days of the New

Transcribed by: William Rose (godfat@earthlink.net)

===============================================================================

Fig. 1

Guitar 1

Eb|-----------|-------------| |-------|

Bb|-----------|------------.| |--3-3--|

Gb|-----------|-------------| 6x, 2nd measure only |--5-5--| To Fig. 2

Db|-----------|------------.| |--0-0--|

Ab|-----------|-------------| |-------|

Db|---0-3/5-3-|-0-333-3/5-3-| |-------|

Guitar 2

Eb|-------------|

Bb|-------------|

Gb|-------------| Comes in on 3rd repitition of above riff and syncrhonizes

Db|-0-333-3/5-3-|

Ab|-------------|

Db|-------------|

Fig. 2

Eb|-------------------| |--------------------------------|

Bb|-------------------| |---------------------------3-3--|

Gb|------------------.| 7x |---------------------------5-5--|

Db|----0---0---0---0--| |----0---0------------------0-0--|

Ab|------------------.| |--------------------------------|

Db|--5---3---0---3----| |--5---3---0-3--3----------------|

For verses, part 1 of Fig. 2 is played by Guitar 1 and Guitar 2 accentuates

with the 2 up-strums.

CHORUS

Eb|------------------------------------------------------------------------------------------------------------------|

Bb|--3-3-3--3-3-3--3-3-3--3-3-3--3-3-3--3-3-3--3-3-3--3-3-3--3-3-3--3-3-3--3-3-3--3-3-3--3-3-3--3-3-3--3-3-3--3-3-3--|

Gb|--5-5-5--5-5-5--5-5-5--5-5-5--4-4-4--4-4-4--4-4-4--4-4-4--5-5-5--5-5-5--5-5-5--5-7-5--4-4-4--4-4-4--4-4-4--4-4-4--|

Db|--0-0-0--0-0-0--0-0-0--0-0-0--0-0-0--0-0-0--0-0-0--0-0-0--0-0-0--0-0-0--0-0-0--0-0-0--0-0-0--0-0-0--0-0-0--0-0-0--|

Ab|------------------------------------------------------------------------------------------------------------------|

Db|------------------------------------------------------------------------------------------------------------------|

Repeats a few times. I didnt count.

Fig. 3

Guitar 1

Eb|-----------------------------------|

Bb|-----------------------------------|

Gb|----------------------------------.| Played after each chorus, I believe.

Db|----0---0---0---0---0---0---0---0--| (You painted pictures of me...)

Ab|----------------------------------.| (You chose straight out to fuck me...)

Db|--5---3---0---5---3---0---3---0----|

Guitar 2

Eb|----------------------------------|

Bb|----------------------------------|

Gb|----------------------------------| Follows Guitar 1 at end.

Db|--5-5-3-3-0-0-5-5-3-3-0-0-3-3-0-0-|

Ab|--5-5-3-3-0-0-5-5-3-3-0-0-3-3-0-0-|

Db|--5-5-3-3-0-0-5-5-3-3-0-0-3-3-0-0-|

Get this song at:  amazon.com sheetmusicplus.com

Share your thoughts

0 Comments found