Days of The New

Days of The New - Red Outro guitar tab

Author/Artist: Days Of The New

Title: Dancing In The Wind / Champagne Outro

Album: Red

Transcribed by: Keith Nida

Email: KeithNida84@yahoo.com

Dropped D Tuning Down A Half-Step

--|---------------------------------------------------------------------------

--|-----------------------------------11--11--11--11--11--10--10--7-----------

--|----12--12--12--12--12--10--7--10--------------------------------rpt-------

--|---------------------------------------------------------------------------

--|---------------------------------------------------------------------------

--|---------------------------------------------------------------------------

Horn Section

------------------------------------------------------------------------------

------------------------------------------------------------------------------

--10--------------------------------------------------------------------------

------10----------------------------------------------------------------------

------------------------------------------------------------------------------

------------------------------------------------------------------------------

-|----------------------------------------------------------------------------

-|----------------------------------------------------------------------------

-|-----------------------0----------------------------------------------------

-|----0---0------0---0-----3--3-----------0---0---0---0--------------5--------

-|---------------------3---3--3-------------------------8--5--3------5--------

-|--0---5---8--0---3-------3--3---------0---5---8---0----------------5--------

Repeat a couple times. Then End On

Get this song at:  amazon.com sheetmusicplus.com

Share your thoughts

0 Comments found