Days of The New

Days of The New - Provider guitar tab

Provider

Days of the New

Original music and lyrics written by: Travis Meeks

Transcribed by: Corey Murray

Briefing: The timing may be a little off, you will have to play along with

the song to get it perfect.

Moderately fasth144

DADGAD tuning (down 1/2 step)

*Gtr. 1

--------------------------------------------------------------------------------------------------- ||

T-------------------------------------------------------------------------------------------------- ||

A---------------------7-----------7---------7---------7----------7----------7-------7^0-------- || Repeat

B-----------------0----------0----------0--------0---------0----------0----------0---------------||

------------------------------------------------------------------------------------------------7--- ||

----------0----------------------------------------------------------------------------------------- ||

*Gtr. 2(enters 3rd time)

----------------------------------------------------------------------------------------------------||

T--------------------------------------------------------------------------------------------------||

A----------------------2-----------2---------2---------2---------2-----------2-------242^0---|| Repeat

B------------------0----------0---------0--------0---------0-----------0----------0-------------||

----------------------------------------------------------------------------------------------------||

-----------0----------------------------------------------------------------------------------------||

*Gtr. 1 *Gtr. 2

------------------------------------------------------ || -----------------------------------------

T----------------------------------------------------- || -----------------------------------------

A----------------------7----------7----------7------ || ---2--------2--------2------2------2--

B------------------0---------0---------0---------0---|| ---------0-------0------0------0------

------------------------------------------------------- || -----------------------------------------

------------0------------------------------------------ || -----------------------------------------

*Gtrs. 1 & 2

(trill)

-----------------------------------------------------------

T----------------------------------------------------------

A-----5^0------4^0------2^0------(4)-----------------

B------------0---------0---------0-----------------------

------------------------------------------------------------

------------------------------------------------------------

----------------------------------------------0----------------------------------------------

T-------------------------0------------------------------------0--------3^2^0------------

A--------------7------------------7-----------------7--------------------------------------

B-----------0------- 0--------0--------0--------0-------0--------0------------------------

----------------------------------------------------------------------------------------------

-------0-------------------------------------------------------------------------------------

(trill)

----------------------------------------0-----------------------------------------------------

T----------------------------0--------------------------------------------------------------

A-----------------7-------------------------------5^0-----4^0-----2^0------(4)--------

B-------------0--------0----------0---------0-----------0--------0-------- 0--------------

----------------------------------------------------------------------------------------------

--------0-------------------------------------------------------------------------------------

*Gtrs. 1 & 2

-------------------------------------------------------------------------------------------------------------------------------

T-----------------------------------------------------------------------------------------------------------------------------

A--------------------7--------5--------4^0-------2-------4-------4^2------2^0------2----------4-------2---------------

B---------------0---------0--------0----------0-------0--------0---------0--------0-------0----------0-------0--------------------------------------------------------------------------------------------------------------------------------------------

---------0---------------------------------------------------------------------------------------------------------------------

---------------------------------------------------------------------------------------------------------------------------

T-------------------------------------------------------------------------------------------------------------------------

A---------2^4---5---------------------0-------------------------------------/7----------5----------4^0--------------

B---------------------------------0----------------------0----------------0----------0---------0------------0----------

-------------------------------3----------------------3-------------------------------------------------------------------

---------------------------3--------------------5---------------3-----0--------------------------------------------------

------------------------------------------------------------------------------------------------------------------------

T------------------------------------------------------------------^---------------------------------------------------

A-------2--------4---------5--4--2----------------------------2-/-4-----------2--------2^0------------------------

B--------------0-------0--------------5--4--2----0------0----------------0---------0----------0---------------------

-------------------------------------------------------------------------------------------------------------------------

-------------------------------------------------------------------------------------------------------------------------

------------------------------------------------------------

T----------------------------------------------------------

A-------------------0--------------------0---------------

B--------------0--------------------0---------------------

------------3-------------------3--------------------------

--------3-------------------5------------------------------

*Gtr. 1

---------------------------------------------------------------------0------------------------------------------

T--------------------------------^----------7--------------------------------------------7----------0---------

A-----------------------------4-/-5----7----------------7--------------------7--------------------------------

B------------------4--5--7--------------------------0--------0----------0---------0----------0---------0----

---------4--5--7------------------------------------------------------------------------------------------------

------------------------------------------------------------------------------------------------------------------

--------0-----------------------------------------------

T---------------------------7--------------------------

A-----------------7------------------------------------

B------------0---------0----------0-------------------

---------------------------------------------------------

---------------------------------------------------------

*Gtr.2 (plays at part 2 bars above)

------------------------------------------------------------

T----------------------------------------------------------

A----------------------------------------------------------

B----------------4--5--7-------------4--5--7-------------

-------4--5--7-------------4--5--7------------------------

-------------------------------------------------------0-----

------------------0------------------------------------------0---------------------

T----------------------------------------7---------0------------------------------

A-----7----------------------7-------------------------------------7-------------

B----------0------------0---------0----------0--------0-------0--------0--------

------------------------------------------------------------------------------------

------------------------------------------------------------------------------------

------------------------------------------------------------ ||

T------7-------------7--------7-------------7------------ ||

A---------7------7---------------7------7----------------|| Repeat 3 times...

B--------------0----------0-----------0----------0--------||

-------------------------------------------------------------||

-------------------------------------------------------------||

then play...(on fourth) HEY (vocals)

----------------------------------------------------------------

T------7-----------7------7-----------------------------------

A---------7-----7------------7--------7----------------------

B-------------0--------0---------------------------------------

------------------------------------0----------0----------------

----------------------------------------------------------------

*Gtr. 1

-------------------------------------------------------------------------------------------2--------------0-----||

T----------------10------------9----------7^0--------5^7--------5---------0^2^3--- 3--------------0-----||

A---------------------------------------------------------------------------------------------------------------|| Repeat

B----------0--------------0----------0-----------0------------0--------0------------------------0------------|| until

------------------------------------------------------------------------------------------------------------------|| chords

-------0----------------------------------------------------------------------------------------------------------|| come

*Gtr. 2

-------------------------------------------0-------------------------0-----------------------2------------------||

T-----------------5^7--------0------------------------5^7--------------------2^3---------------------------||

A---------------------------------------------------------------------------------------------------------------|| Repeat

B------------0-----------0---------0-------------0------------0----------0------------0---------0-----------|| until

-----------------------------------------------------------------------------------------------------------------|| chords

--------0--------------------------------------------------------------------------------------------------------|| come

Ć’ast = 207

*Gtrs. 1 & 2 Rhy. Fig. 1

---------- 2-^4----4---4------- 4------------------------||

T-------- 3--------3---3------- 3------------------------||

A---------0--------0---0--------0------------------------|| Repeat 4 times

B-----------------------------------------------------------||

-------------------------------------------------------------||

-------------------------------------------------------------||

on fivth...

----------- 2----- 4--------- 5---------4-------------------||

T--------- 3----- 3-----3----3----3----3-------------------||

A---------0------0-----0----0----0----0-------------------|| Repeat 4 times

B-------------------------------------------------------------||

---------------------------------------------------------------||

---------------------------------------------------------------||

on fivth...

------- 2-^-0----0---- 2-^-0---0----------------------------||

T----- 3---------3-----3--------3----------------------------||

A------0---------0-----0--------0----------------------------|| Repeat 3 times

B---------------------------------------------------------------||

-----------------------------------------------------------------||

-----------------------------------------------------------------||

on fourth... Don't you know...

------- 2------0-------------------------------------------------

T----- 3------0-------------------------------------------------

A------0------0---------------0--------------------------------

B----------------------4-----------------------------------------

-------------------------------------------------------------------

-------------------------------------------------------------------

---------------------------------------------------------------------------------------------------------------------

T-------------------------------------------------------------------------------------------------------------------

A------ 2--------2---2-------2--------2---------2--------4---4---4---4------4-^5^4--2--0-------------0----

B--------0--------0---0-------0--------0---------0--------0---0---0---0------0---------------------4----------

----------0--------0---0-------0--------0---------0--------0---0---0---0------0---------------------------------

----------0--------0---0-------0--------0---------0--------0---0---0---0------0---------------------------------

|------------------------------------------------------------------------------

T|-----------------------------------------------------------------------------

A------ 2------- 4---4---4---4----4-^5^4--2---0-------------0----------

B-- ----0--------0---0---0---0----0---------------------4-----------------

----------0--------0---0---0---0----0---------------------------------------

----------0--------0---0---0---0----0---------------------------------------

------------------------2 ^/5--------5---5-----4----4-------4-------0-------------------

T---------------------------0--------0---0-----0----0-------0-------0-------------------

A------- 2------- 4--4 ^/ 7------- 7---7-----7----7-------7-------0------------0------

B---------0--------0-------0--------0---0-----0----0-------0-------0-----4-------------

-----------0---------------------------------------------------------------------------------

-----------0---------------------------------------------------------------------------------

Repeat above 3 bars until last bar of the verse here:

(on fourth replace the bar above with this one)

--------------------------- 5--------5-----5-------5----5-----------------------------------

T------------------------- 0--------0-----0-------0----0----------------------------------

A------- 2--------------- 5--------5-----5-------4----4-----------------------------------

B---------0----------0--- 0--------0-----0-------0----0-----------------------------------

-----------0-----------------------------------------------------------------------------------

-----------0-----------------------------------------------------------------------------------

Fun part before the chorus...

----------------------------------------------------------------------------------------------------------

T--------------------------------------------------------------------------------------------------------

A---------0 ^ 2---------0------------------------------------------------------------------------------

B--------------------4--------2 ^ 4----0 ^ 2---------2-------------------------------------------------

----------------------------------------------------4--------2 ^ 4----0 ^ 2----------0------------------

----------------------------------------------------------------------------------4---------2 ^ 4---------

CHORUS

---------------------------------------------0----------------------------------- 0---------------

T----------------------------0--------------------------------------0----------------------------

A---------------------2-------------2------------------------2-----------2----------------------

B-------------------------------------------------------------------------------------------------

---------------------------------------------------------------------------------------------------

-----------0-----------------------------------------0 ^ 4----------------------------------------

cont...

--------------------------------------------0--------------------------------------------------------------

T-----------------------------0---------------------------------------------------------------------------

A----------------------2-------------2-------------------------------------------------------------------

B-----------------------------------------------------------------------0---------------------------------

------------------------------------------------------0--------2-------------------------------------------

------------4 ^ 5------------------------------------------------------------------------------------------

Repeat CHORUS but... Replace part above with this...

--------------------------------------------------------------------------------0---------------------------

T----------------------------------------------------------------------------------------------------------

A------------------------------------------------------------------2---------------------------------------

B--------------------------------------------------------------4---------4---------------------------------

-------------------------------------------------------0----------------------------------------------------

------------------------------------------------------------------------------------------------------------

end CHORUS w/ Rhy. Fig. 1 (Gtrs. 1 & 2)

Bridge 1:

Gtrs. 1 & 2

Don't you know

----------- 0-------- 0---0---0---0------0--------0---0---0---0--------0-------0---0---0---0-----

T--------- 0-------- 0---0---0---0------0--------0---0---0---0--------0-------0---0---0---0-----

A---------5---------5---5---5---5------4--------4---4---4---4--------7-------7---7---7---7-----

B-------------------------------------------------------------------------------------------------------

---------------------------------------------------------------------------------------------------------

---------------------------------------------------------------------------------------------------------

that I______ can

----------- 0---------0---0---0---0-------0-------0---0---0---0---------0-------0---0---0---0------

T--------- 0---------0---0---0---0-------0-------0---0---0---0---------0-------0---0---0---0------

A---------5-------- 5----5---5-- 5-------9-------9---9---9---9-------- 5-------5---5---5---5------

B---------------------------------------------------------------------------------------------------------

-----------------------------------------------------------------------------------------------------------

-----------------------------------------------------------------------------------------------------------

find this?

-------------0---------0---0---0---0--------0------0---0---0---0---------------------------------------

T-----------0---------0---0---0---0--------0------0---0---0---0---------------------------------------

A-------- 4---------4---4---4---4------ 2------2---2---2---2---------------------------------------

B----------------------------------------------------------------------------------------------------------

------------------------------------------------------------------------------------------------------------

------------------------------------------------------------------------------------------------------------

I won't be

---------------0--------0---0---0---0--------0------0---0---0---0-----------0------0---0---0---0------

T-------------0--------0---0---0---0--------0------0---0---0---0-----------0------0---0---0---0------

A----------- 5--------5---5---5---5------- 4------4---4---4---4---------- 7------7---7---7---7------

B------------------------------------------------------------------------------------------------------------

--------------------------------------------------------------------------------------------------------------

--------------------------------------------------------------------------------------------------------------

a - fraid of

---------------- 0-------0---0---0---0---------0------0---0---0---0-----------0------0---0---0---0------

T-------------- 0-------0---0---0---0---------0------0---0---0---0-----------0------0---0---0---0------

A------------ 9-------9---9---9---9---------5------5---5---5---5-----------4------4---4---4---4------

B-------------------------------------------------------------------------------------------------------------

---------------------------------------------------------------------------------------------------------------

---------------------------------------------------------------------------------------------------------------

you. I

(Oh, Yeah)

------------------0-------0---0---0---0-------------------------------------------0------0---0---0---0------

T----------------0-------0---0---0---0-------------------------------------------0------0---0---0---0-------

A-------------- 2---- 2---2---2---2---------2 ^ 0-------0------------------ 5------5---5---5---5-------

B---------------------------------------------------------4--------2 ^ 4---------------------------------------

-----------------------------------------------------------------------------------------------------------------

-----------------------------------------------------------------------------------------------------------------

can see my

-------------------0-------0---0---0---0---------0-------0---0---0---0-----------0------0---0---0---0-------

T-----------------0-------0---0---0---0---------0-------0---0---0---0-----------0------0---0---0---0-------

A-------------- 4-------4---4---4---4------- 7-------7---7---7---7-----------5------5---5---5---5-------

B-----------------------------------------------------------------------------------------------------------------

-------------------------------------------------------------------------------------------------------------------

-------------------------------------------------------------------------------------------------------------------

heart's to - geth -

--------------------0--------0---0---0---0--------0-------0---0---0---0-----------0-------0---0---0---0-------

T------------------0--------0---0---0---0--------0-------0---0---0---0-----------0-------0---0---0---0-------

A---------------- 9--------9---9---9---9--------5-------5---5---5---5-----------4-------4---4---4---4-------

B--------------------------------------------------------------------------------------------------------------------

----------------------------------------------------------------------------------------------------------------------

----------------------------------------------------------------------------------------------------------------------

er. I want

---------------------0--------0---0---0---0--------0-------0---0---0---0------------0-------0---0---0---0------

T-------------------0--------0---0---0---0--------0-------0---0---0---0------------0-------0---0---0---0------

A----------------- 2--------2---2---2---2--------5-------5---5---5---5------------4-------4---4---4---4------

B--------------------------------------------------------------------------------------------------------------------

----------------------------------------------------------------------------------------------------------------------

----------------------------------------------------------------------------------------------------------------------

you too______

----------------------0--------0---0---0---0------- 0-------0---0---0---0------------------------------

T--------------------0--------0---0---0---0------- 0-------0---0---0---0------------------------------

A------------------ 7--------7---7---7---7------- 9-------9---9---9---9------------------------------

B----------------------------------------------------------------------------------------------------------

------------------------------------------------------------------------------------------------------------

------------------------------------------------------------------------------------------------------------

feed me

-----------------------0-------0---0---0---0--------0-------0---0---0---0-------------------------------

T---------------------0-------0---0---0---0--------0-------0---0---0---0-------------------------------

A------------------- 5-------5---5---5---5------- 4-------4---4---4---4-------------------------------

B----------------------------------------------------------------------------------------------------------

------------------------------------------------------------------------------------------------------------

------------------------------------------------------------------------------------------------------------

too La, la, la.

------------------------0-------x---x---x---x---------0-----------x---x----0-------------------------------------

T----------------------0-------x---x---x---x---------0-----------x---x----0-------------------------------------

A-------------------- 7-------x---x---x---x---------5-----------x---x----5-^4-------5-------------------------

B-----------------------------------------------------------------------------------------------0---0---------0----

---------------------------------------------------------------------------------------------------------------------

--------------------------------------------------------------------------------------------------------------------

Repeat 7 times...

--------------------------------------------------------------------------------------------------------------

T------------------------------------------------------------------------------------------------------------

A-----------------------------------5----------5-----5 ^ 9 ^ 5-----------5----------5--------------------

B------------------------------------------------------------------------------------------------------------

------------------------------0-----------0---------------------------0----------0--------------------------

-------------------0-----------------------------------------------------------------------------------------

On eighth... Don't you know_ Rhy. Fig. 4 it's hard____

-------------------0--------0--------0-------0--------------------------------------------------------------------------

T-----------------0--------0--------0-------0--------------------------------------------------------------------------

A--------------------------5--------4-------5-------------9-----------9-----------------9---------9-----9 ^ 12 ^ 9-

B------------------------------------------------------------------------------------------------------------------------

-------------------------------------------------------0----------0-------------------0--------0------------------------

-----------0--------------------------------------------------------------------0----------------------------------------

to dig__________________

deep?________________

(repeat part directly below)

----------------------------------------------------------------------------------------------------------------------------

T--------------------------------------------------------------------------------------------------------------------------

A--------------9-----------9--------------------9----------9-----9 ^ 12 ^ 9------------ 9---------9-------------------

B--------------------------------------------------------------------------------------------------------------------------

-----------0----------0---------------------0---------0------------------------------0---------0-------------------------

---------------------------------------0------------------------------------------------------------------------------------

Can't you see it's

------------------0-----0--------0--------------0--------------------------------------------------------------------

T----------------0-----0--------0--------------0--------------------------------------------------------------------

A----------------------5--------4--------------5------------5----------5-----------------------5----------5-------

B---------------------------------------------------------------------------------------------------------------------

----------------------------------------------------------0----------0----------------------0----------0-------------

-----------0------------------------------------------------------------------------0---------------------------------

hard_______________________ to let__________

-----------------------------------------------------------------------------------------------------------

T---------------------------------------------------------------------------------------------------------

A---------5 ^ 9 ^ 5-------------5----------5------------------5--------5--------9 ^ 12 ^ 9----------

B----------------------------------------------------------------------------------------------------------

----------------------------0-----------0-------------------0--------0------------------------------------

----------------------------------------------------0-------------------------------------------------------

go?________________

------------------------------------------------------------------------------------------------------------------

T-----------------------------------------------------------------------------------------------------------------

A----------------9---------9-----------------------9----------9-------9 ^ 12 ^ 9-----------9-----------9----

B-----------------------------------------------------------------------------------------------------------------

------------0----------0----------------------0----------0-------------------------------0----------0-----------

---------------------------------------0---------------------------------------------------------------------------

There you... end Rhy. Fig. 4

-------------------0-----0-----------0-------------------------------------------------------------------------

T-----------------0-----0-----------0-------------------------------------------------------------------------

A-----------------------5---------- 4------------------------------------------------------------------------

B----------------------------------------------------------------------------------------------------------

------------------------------------------------------------------------------------------------------------

-------------0-----------------------------------------------------------------------------------------------

( now you have to use your ear and correspond the previous bars with the rest of the song, until the outro.)

OUTRO

Gtrs. 1 & 2

------------------------------------------------------------------------------------------------------ ||

T-------------------------------------------------------------------------0--------------------------||

A----------------------5 ^ 4----5---------------------------0--------------------------------------|| Repeat 7times

B-------------------------------------------------------0--------------------------------------------||

------------------------------------------------------------------------------------------------------||

---------------0------------------------------3 ^ 5--------------------------------------------------||

On eighth...(fast and fun)

---------------------------------------------------------------------------------------------------------

T-------------------------------------------------------------------------------------------------------

A---------4 ^ 5 ^ 4-----------------------------------------------------------------------------------

B-------------------------7---5---4---------4 ^ 5 ^ 4------------------------------------------------

------------------------------------------7-----------------7---5---3----------------------------------

---------------------------------------------------------------------------7----------------------------

( now repeat OUTRO until fade)

Get this song at:  amazon.com sheetmusicplus.com

Share your thoughts

0 Comments found