Days of The New

Days of The New - Phobics Of Tragedy guitar tab

Author/Artist: Days Of The New

Title: Phobics Of Tragedy

Album: Green

Transcribed by: Keith Nida

Email: KeithNida84@yahoo.com

6-1

A# G# A# D# G# A#

-|---------------------|---------------------|----------------------|---------

-|---------------------|---------------------|----------------------|---------

-|----------0---------0|----------0---------0|----------0---------0-|---------

-|----3---3-----3---3--|----3---3-----3---3--|----3---3-----3---3---|---------

-|------2---------2----|------2---------2----|------2---------2-----|---------

-|--5---------3--------|--0---------0--------|--5---------3---------|---------

Nothing Is Real When Your Talking

------0-0-0--0-0-----0-0--|---------------------------------------------------

------0-0-0--0-0-----0-0--|---------------------------------------------------

--0/2------------0-------0|---------------------------------------------------

-------------------3------|---------------------------------------------------

--------------------------|---------------------------------------------------

--------------------------|---------------------------------------------------

Get this song at:  amazon.com sheetmusicplus.com

Share your thoughts

0 Comments found