Days of The New

Days of The New - Once Again guitar tab

Author/Artist: Days of the New

Title: Once Again

Album: Red

Transcribed by: Denial

Email: daysofdenial@aol.com

this is close enough you should be able to

figure the rest, sorry i dont have time for the solo

Eb-----------------------------------------------------------|------------------

Bb---------8------7-5----3-----0--------8------7-5----3-----0|------------------

Gb-----------0-------------0--------------0-------------0----|------------------

Db-------------0-------------0--------------0-------------0--|------------------

Ab--5/7-7--------------3----------5/7---------------3--------|------------------

Db-----------------------------------------------------------|------------------

Eb------------------------5-------3-2h3----------10---10---10|------------------

Bb--------8------7-5--------0-----------5/7----7----7----7---|------------------

Gb----------0-----------------0------------------------------|------------------

Db------------0----------------------------------------------|------------------

Ab---5/7-------------/5--------------------------------------|------------------

Db-----------------------------------------------------------|------------------

Eb------7------5--3h5----5------3--2h3----3------2--0h2----2--------------------

Bb--------0----------------0----------------0----------------0-----3h5-3p0------

Gb----------0----------------0----------------0----------------0----------------

Db---5----------------4----------------2----------------0-----------------------

Ab------------------------------------------------------------------------------

Db------------------------------------------------------------------------------

Eb----------0------0------0------------|----------------------------------|-----

Bb---3--------3------3------3---3----3-|----------------------------------|-----

Gb-----0--------0------0--------0h2--2-|----------------------------------|-----

Db-------0----------------------0----0-|-----0--------0-----0------0------|-----

Ab-3-----------------------------------|---0------2v--0-------0------0----|-----

Db-------------------------------------|-2-----5------0---0------0------0-|-----

play with the open D chord

here

Eb---------------------------|-------------------------------|-----------12h--|-

Bb------------3---3--3--3--3-|-----------------------------3-|---x---x---12h--|-

Gb------------2---2--2--2--2-|-----------------------------2-|---x---x---12h--|-

Db-2---2-2-x--0---0--0--0--0-|---2---4---0----0--0--0--0---0-|---x---x---12h--|-

Ab-2---2-2-x--0---0--0--0--0-|---2---4---0----0--0--0--0---0-|---x---x---12h--|-

Db-2---2-2-x--0---0--0--0--0-|---2---4---0----0--0--0--0---0-|----------------|-

and here and here harmonic part

Get this song at:  amazon.com sheetmusicplus.com

Share your thoughts

0 Comments found