Days of The New

Days of The New - Now guitar tab

-------------------------------------------------------------------------------

"Now" Solo - Days of the New

-------------------------------------------------------------------------------

Tabbed by: ShadowXShred

Email: webmaster at tabs-database.com.com

Tuning: 1/2 Step Down (Eb Ab Db Gb Bb Eb)

I tabbed the rhythm part of the song a while back, and figured I'd tab out the solo as well. I tabbed this solo by ear alone,

without any other tabs to go by, or any slowdown software, so chances are there are a few mistakes here and there. If you catch

something, email me the correction, so I can fix the tab.

Listen to the song for the rhythm. Have Fun, this is really a fun solo to play once you have the whole thing down.

e|----------------------------------------------------------------------------------------------------------|

B|----------------------------------------------------------------------------------------------------------|

G|----------------------------------------------------------------------------------------------------------|

D|--5/9---5~------------------------------------------------------------------------------------------------|

A|---------------7--6--5--------------------------------------------5/7--5----------5-----------5-----------|

E|---------------------------8--5--8--8------------5p3h5--------------------8--5--8----8--5--8----5---------|

e|----------------------------------------------------------------------------------------------------------|

B|----------------------------------------------------------------------------------------------------------|

G|----------------------------------------------------------------------------------------------------------|

D|----------------------------------------------------------------------------------------------------------|

A|--------------------------------------------------9b10-9--------7-------7--9--7---------5----5--7--5------|

E|--0-2-2-2/3-3-3/5-5-5/7-7-7h8--7--8--10b11-8----------------10----10------------------8---8----------8--5-|

e|-------------------------------------------------------------------------------------------------------------------|

B|-------------------------------------------------------------------------------------------------------------------|

G|-------------------------------------------------------------------------------------------------------------------|

D|-------------5--7--5-------------5--7--5-------------5--7--5-------------5--7--5--------------5--7-7-7--5--7--5--7-|

A|--------5--7---------7--5---5--7---------7--5---5--7---------7--5---5--7---------7--5---5--7-----------------------|

E|---5--8-------------------8-------------------8-------------------8-------------------8----------------------------|

e|----------------------------------------------------------------------------------------------------------|

B|-------------------------------------------------7/8-7---------------------------------5------------5-----|

G|--5/7--5/7--5-----5------5-7-8-5-7-8-5-7-8-------------8-7--5--7--5--7--5--------------5------------5-----|

D|---------------7-------------------------------------------------------------7--5--7-------7--5--7------7-|

A|----------------------------------------------------------------------------------------------------------|

E|----------------------------------------------------------------------------------------------------------|

e|--------------------------------------------------------------------------------------------------------------------------------------|

B|---------------------------------------5--5--5--5-----------10--10b12b10--8-----------------------------------------------------------|

G|---------------------------------------5--5--5--5--------------------------------------11-12-11-9-11-9-7-8-7-8-7-------7--------------|

D|----7--5--5h7p5---------------------------------------------------------------------------------------------------- 10----10--7-10----|

A|----------------------7p5h7-----------------------------------------------------------------------------------------------------------|

E|--------------------------------------------------------------------------------------------------------------------------------------|

e|---------------------------------------------------------------------------5-8--10b12b10--8--10--8--|

B|---------------------------------------------------13b12--10---------5-7-8--------------------------|

G|-----------------------------------------------14----------------5-7--------------------------------|

D|----------------------------------5-6-7--12/14-----------------7------------------------------------|

A|--5/7--------------5-5/7 6-5-6-7--------------------------------------------------------------------|

E|-------8--5--3--2-----------------------------------------------------------------------------------|

e|--5------------------------------------------------------------8~-7-5-------------------------------|

B|----8-7-8-5-7------------------------------------------------10-------------------------------------|

G|--------------7-8-7-5---7-8-7-5---5--8-7-5-8-7-5-8-7-5------9----------5/8-7----------3/5-----------|

D|----------------------7---------7--------------------------7-----------------5--7--5-------7--5--7--|

A|----------------------------------------------------------------------------------------------------|

E|----------------------------------------------------------------------------------------------------|

e|--------------------------------------------------5-7--/8--5---/12-12-12-12---8-8-8-8-8-7-7-7-7/3-3-3-0-0-0-0-0--3--5-8-10-5-3-0-5~---|

B|-----------------------------------------5-7-8----------------------------------------------------------------------------------------|

G|-------------------------5~----5-7-8--------------------------------------------------------------------------------------------------|

D|------------5~---5-7-8----------------------------------------------------------------------------------------------------------------|

A|---5-7-8------------------------------------------------------------------------------------------------------------------------------|

E|--------------------------------------------------------------------------------------------------------------------------------------|

Added by tabs-database.com and our distinguished partners

Get this song at:  amazon.com sheetmusicplus.com

Share your thoughts

0 Comments found