Days of The New

Days of The New - Never Drown guitar tab

Author/Artist: Days Of The New

Title: Never Drown

Album: Red

Transcribed by: Keith Nida

Email: KeithNida84@yahoo.com

Dropped D Tuning 1/2 Step Down

1st string is half step down also.

just like shelf in the room

-|------------------10-10-p9-p7--9--7--7--p5-p3-5|----------------------------

-|--88888888888----------------------------------|----------------------------

-|-----------------------------------------------|--7-7-7-7-7--5--5--5-5-5----

-|-----------------------------------------------|----------------------------

-|-----------------------------------------------|----------------------------

-|-----------------------------------------------|----------------------------

Palm Mute

-|----------------------------------------------------------------------------

-|----------------------------------------------------------------------------

-|----------------------------------------------------------------------------

-|-7--7---5-------9--9--10--10------------------------------------------------

-|-----------5----------------------------------------------------------------

-|----------------------------------------------------------------------------

-|----------------------------------------------------------------------------

-|-------------------------------3--------------------------------------------

-|--7--7--3--3-------------------2--------------------------------------------

-|--7--7--3--3--5--5-------------0--------------------------------------------

-|--5--5--1--1--5--5-------------0--------------------------------------------

-|--------------5--5-------------0--------------------------------------------

Keep in all the things Don't let go, yeah

-|------------------0------------------------0--------------------------------

-|--------3-----------3---------3----------3----------------------------------

-|----2-----2---2-------2---2-----2------2------------------------------------

-|------0---------0-----------0-----0--0--------------------------------------

-|--0---------1-----------3---------------------------------------------------

-|----------------------------------------------------------------------------

Maybe its the way,

-|--0--0--0--0-------------------0--------------------------------------------

-|--3--3--3--3-------------------3--------------------------------------------

-|--2--2--0--2-------------------2--------------------------------------------

-|--0--0--2--0-------------------0--------------------------------------------

-|--0--1--3--0-------------------0--------------------------------------------

-|--0--0--0--0-------------------0--------------------------------------------

Strum the chords then Dont let go

Get this song at:  amazon.com sheetmusicplus.com

Share your thoughts

0 Comments found