Days of The New

Days of The New - Instrumental guitar tab

"Instrumental" (days of the new, live and unplugged mp3)

recording courtesy of www.whatsleftforme.com

transcribed by: jonathan

questions/comments: jonerocket@hotmail.com

h = hammer on

p = pull off

v = vibrato

~ = strumming

/ = slides

^ = bend

... = palm mute

*note*

the tuning is: D-A-D-A-C-D half step down with a cappo on the 4th fret.

which makes it: F-C-F-C-Eb-F

"why don't you just tune to D-A-D-A-C-D without a half step down and just

put a cappo on the 3rd fret," you ask??

for 2 reasons:

1) the majority of DOTN songs are in Db-Ab-Db-x-x-x. so since your

guitar is probably already tuned flat, it makes sense to leave your

bottom 3 strings alone, and to tune your top 3 strings flat aswell....

(as a time saver).

2) your dot inlays will line up better. if your guitar is like mine,

you have inlays on the 5th, 7th, 9th, and 12th frets. putting the

cappo on the 4th fret keeps those inlays on odd frets. (1, 3, 5, then 8).

maybe it's just me, but having those inlays on even fret numbers freaks

me out man!

....but you can do whatever you like.

*remember to compensate for the cappo when reading this.

a -2- in this tab is actually a note played on the 6th fret.

a -3- is a note played on the 7th fret

a -4- is a note played on the 8th fret

....etc....etc.....

[Part 1]

Db------------------------------0--- -----------------------------------------

B-----------------------------0----- -----------------------------------------

Ab--------------------------------0- -----------------------------------------

Db-0-0-2-3-5--3-2-3--0-0-2-3-5------ -0-0-2-3-5--3-2-3--0-0-2-3-5-------------

Ab-0-----------------0-------------- -0-----------------0--------3-3-4-5------

Db-0-----------------0-------------- -0-----------------0---------------------

[Part 2]

... ...

Db---------------------------------------------

B---2-2--0h2-4--0h2-4---2-2--0h2-4-0h2-4-------

Ab--0-0-----------------0-0--------------------

Db---------------------------------------------

Ab---------------------------------------------

Db---------------------------------------------

Db-0---0-0-0-2--0-0-2---0---0-0-0-2--0-0-2-----

B--0---0-0-0-2--0-0-2---0---0-0-0-2--0-0-2-----

Ab-0---0-0-0-0--0-0-0---0---0-0-0-0--0-0-0-----

Db-0---0-0-0-0--0-0-0---0---0-0-0-0--0-0-0-----

Ab-0---0-0-0-0--0-0-0---0---0-0-0-0--0-0-0-----

Db-0---0-0-0-0--0-0-0---0---0-0-0-0--0-0-0-----

[Part 3]

Db------------------2p0-------2p0------- -----------------2p0-3p0-5p0-7p0-10p0------

B-----------------------2p0-------2p0--- ----------------------------------0--------

Ab-----0-------0---0---0---0-0---0---0-- ----0-------0---0---0---0---0---0----------

Db----0-------0--0---------------------- ---0-------0--0----------------------------

Ab---7-------3--0-3---------3----------- --7-------3--0-3---------------------------

Db--0---0-2-3--------------------------- -0---0-2-3---------------------------------

[Part 4]

-play part 4 similar to part 1, just play it a little more open.

strum the open strings, instead of just playing the single notes

all the time.

[Part 5]

-part 5 is just simple strumming of the following open chords:

Db---0----0----0----0----

B----0----0----0----0----

Ab---0----0----0----0----

Db---0----3----5----2----

Ab---0----0----0----0----

Db---0----3----5----2----

[Part 6]

-part 6 winds down the instrumental with the following chords:

Db--5---3---2-----3---2---0----

B---0---0---0-----0---0---0----

Ab--0---0---0-----0---0---0----

Db--5---3---2-----3---2---0----

Ab-----------------------------

Db-----------------------------

[Part 7]

Db---------------------------------------------

B----------------------------------------------

Ab------0---------0---------0---------0--------

Db----0---------0---------0---------0-----0----

Ab--5-----0h3-5-----0h3-5-----0h3-5------------

Db--------------------------------------0------

[Part 8]

-travis does some balistically fast hammer-ons.

Db-----------------------------------------------------------------------------0----

B--------------------------------------------------------------0h1h2-----------2----

Ab-----------0h2h3----------0h2h3----------0h2h3----------0h2h3----------------0----

Db------0h2h3----------0h2h3----------0h2h3----------0h2h3---------------------0----

Ab-0h2h3----------0h2h3----------0h2h3----------0h2h3--------------------------0----

Db-----------------------------------------------------------------------------0----

Get this song at:  amazon.com sheetmusicplus.com

Share your thoughts

0 Comments found