Days of The New

Days of The New - Independent Slaves guitar tab

INDEPENDENT SLAVES

Title : Independent Slaves

Artist : Days of the New

Transcribed by : Ben McDowell

================================================================================

Legend

------

h = hammer-on

p = pull-off

b = bend

r = bend release

/ = slide up/down

= natural harmonic

[5] = artifical harmonic

~ = vibrato

tr = trill

Db|-------------------|-------------------|---------------------|------

Bb|-------------------|-------------------|---------------------|------

Gb|-2-2-2-2-2-2-------|-5-5-5-5-5-5-------|---------------------|------

Db|-2-2-2-2-2-2-------|-5-5-5-5-5-5-------|-0--0-3--------------|-0--0-

Ab|-0-0-0-0-0-0-3p0-2-|-3-3-3-3-3-3-3p2---|-0--0---2--3-2h3p2---|-0--0-

Db|-------------------|-----------------3-|-0--0--------------3-|-0--0-

The stop is now...

Db|------------------|------------------|--------------------|----------

Bb|------------------|------------------|--------------------|----------

Gb|------------------|------------------|--------------------|----------

Db|-3----------------|-0--0-3-----------|-3--3-x--5-5-5--4-5-|-7--0-3---

Ab|---2----0h2p0-3-5-|-0--0---2-2h3p2---|-3--3-x--5-5-5--2-3-|-5--0---2-

Db|------------------|-0--0-----------3-|-3--3-x--5-5-5------|----0-----

I took a step ahead...

Db|----------|------------------------|------------------|--------------

Bb|----------|------------------------|------------------|--------------

Gb|----------|------------------------|------------------|--------------

Db|----------|-0--0--3----------------|-0--0-3-----------|-3--3-x-5-5-5-

Ab|--2h3p2---|-0--0----2-0h2p0-2b3----|-0--0---2-2h3p2---|-3--3-x-5-5-5-

Db|--------3-|-0--0-------------------|-0--0-----------3-|-3--3-x-5-5-5-

Db|-------|----------------------|--------------------|----------------

Bb|-------|----------------------|--------------------|----------------

Gb|-------|----------------------|--------------------|----------------

Db|-x-5-3-|-0--0-3---------------|-0--0-3-------------|-0--0-3---------

Ab|-x-5-3-|-0--0---2--3-2h3p2----|-0--0---2-0h2p0-3-5-|-0--0---2-2h3p2-

Db|-x-5-3-|-0--0---------------3-|-0--0---------------|-0--0-----------

By the power vested in me...

Db|---|------------------|-------------------|----------------------|---

Bb|---|------------------|-------------------|----------------------|---

Gb|---|------------------|-------------------|----------------------|---

Db|---|-3--3-x--5-5--4-5-|-7--0-3------------|-0--0-3---------------|-0-

Ab|---|-3--3-x--5-5--2-3-|-5--0---2-2h3p2----|-0--0---2-0h2p0-2b3---|-0-

Db|-3-|-3--3-x--5-5------|----0------------3-|-0--0-----------------|-0-

Now I am good at what I do...

Db|----------------|--------------------|----------------|-------------

Bb|----------------|--------------------|----------------|-------------

Gb|----------------|--------------------|----------------|-------------

Db|--0-3-----------|-3--3-x-5-5-5-x-5-3-|----------------|-0-0-x-x-0-0-

Ab|--0---2-2h3p2---|-3--3-x-5-5-5-x-5-3-|-2h3-2h3-2------|-0-0-x-x-0-0-

Db|--0-----------3-|-3--3-x-5-5-5-x-5-3-|-----------3--0-|-0-0-x-x-0-0-

So what if I die...

Db|-----|-----------------|---------------|-----------------|-----------

Bb|-----|-----------------|---------------|-----------------|-----------

Gb|-----|-----------------|---------------|-----------------|-----------

Db|-x-x-|-0-0-x-x-0-0-x-x-|---------------|-0-0-x-x-0-0-x-x-|-0-0-x-x-0-

Ab|-x-x-|-0-0-x-x-0-0-x-x-|-2h3-2h3-2-----|-0-0-x-x-0-0-x-x-|-0-0-x-x-0-

Db|-x-x-|-0-0-x-x-0-0-x-x-|-----------3-0-|-0-0-x-x-0-0-x-x-|-0-0-x-x-0-

Would they really care?

Db|-------|---------------|-----------------|-----------------|---------

Bb|-------|---------------|-----------------|-----------------|---------

Gb|-------|---------------|-----------------|-----------------|---------

Db|-0-x-x-|---------------|-0-0-x-x-0-0-x-x-|-0-0-x-x-0-0-x-x-|---------

Ab|-0-x-x-|-2h3-2h3-2-----|-0-0-x-x-0-0-x-x-|-0-0-x-x-0-0-x-x-|-2h3-2h3-

Db|-0-x-x-|-----------3-0-|-0-0-x-x-0-0-x-x-|-0-0-x-x-0-0-x-x-|---------

Oh they think they are fooling me... They just want me to sit here

Db|-------|-----------------|-----------------|---------------|---------

Bb|-------|-----------------|-----------------|---------------|---------

Gb|-------|-----------------|-----------------|---------------|---------

Db|-------|-0-0-x-x-0-0-x-x-|-0-0-x-x-0-0-x-x-|---------------|-0-0-x-x-

Ab|-2-----|-0-0-x-x-0-0-x-x-|-0-0-x-x-0-0-x-x-|-2h3-2h3-2-----|-0-0-x-x-

Db|---3-0-|-0-0-x-x-0-0-x-x-|-0-0-x-x-0-0-x-x-|-----------3-0-|-0-0-x-x-

So what if I die?

Db|---------|-----------------|---------------|-----------------|-------

Bb|---------|-----------------|---------------|-----------------|-------

Gb|---------|-----------------|---------------|-----------------|-------

Db|-0-0-x-x-|-0-0-x-x-0-0-x-x-|---------------|-0-0-x-x-0-0-x-x-|-0-0-x-

Ab|-0-0-x-x-|-0-0-x-x-0-0-x-x-|-2h3-2h3-2-----|-0-0-x-x-0-0-x-x-|-0-0-x-

Db|-0-0-x-x-|-0-0-x-x-0-0-x-x-|-----------3-0-|-0-0-x-x-0-0-x-x-|-0-0-x-

Would it bother you?

Db|-----------|---------------|-----------------|-----------------|-----

Bb|-----------|---------------|-----------------|-----------------|-----

Gb|-----------|---------------|-----------------|-----------------|-----

Db|-x-0-0-x-x-|---------------|-0-0-x-x-0-0-x-x-|-0-0-x-x-0-0-x-x-|-----

Ab|-x-0-0-x-x-|-2h3-2h3-2-----|-0-0-x-x-0-0-x-x-|-0-0-x-x-0-0-x-x-|-2h3-

Db|-x-0-0-x-x-|-----------3-0-|-0-0-x-x-0-0-x-x-|-0-0-x-x-0-0-x-x-|-----

Yeah there's no one taking my place I'm taking the place too.

Db|-----------|-----------------|-----------------|---------------|-----

Bb|-----------|-----------------|-----------------|---------------|-----

Gb|-----------|-----------------|-----------------|---------------|-7-5-

Db|-----------|-0-0-x-x-0-0-x-x-|-0-0-x-x-0-0-x-x-|---------------|-7-5-

Ab|-2h3-2-----|-0-0-x-x-0-0-x-x-|-0-0-x-x-0-0-x-x-|-2h3-2h3-2-----|-5-3-

Db|-------3-0-|-0-0-x-x-0-0-x-x-|-0-0-x-x-0-0-x-x-|-----------3-0-|-----

Db|---------------|--------------------|-------------------|------------

Bb|---------------|--------------------|-------------------|------------

Gb|-7-------------|--------------------|-7-5-7-------------|------------

Db|-7--3-5-3--x-x-|-3-5-3--x-x-3-5-3-0-|-7-5-7--3-5-3--x-x-|-3-5-3--x-x-

Ab|-5--3-5-3--x-x-|-3-5-3--x-x-3-5-3-0-|-5-3-5--3-5-3--x-x-|-3-5-3--x-x-

Db|----3-5-3--x-x-|-3-5-3--x-x-3-5-3-0-|--------3-5-3--x-x-|-3-5-3--x-x-

If I could breathe they wouldn't care

Db|---------|-------------------|--------------------|-----------------

Bb|---------|-------------------|--------------------|-----------------

Gb|---------|-7-5-7-------------|--------------------|-7-5-7-----------

Db|-3-5-3-0-|-7-5-7--3-5-3--x-x-|-3-5-3--x-x-3-5-3-0-|-7-5-7--3-5-3--x-

Ab|-3-5-3-0-|-5-3-5--3-5-3--x-x-|-3-5-3--x-x-3-5-3-0-|-5-3-5--3-5-3--x-

Db|-3-5-3-0-|--------3-5-3--x-x-|-3-5-3--x-x-3-5-3-0-|--------3-5-3--x-

When I say all I want is a chance I just mean I want you to share

Db|---|--------------------|-----------------|---------|---------------

Bb|---|--------------------|-----------------|---------|---------------

Gb|---|--------------------|-2-2-2-2-2-2-2-2-|-5-------|---------------

Db|-x-|-3-5-3--x-x-3-5-3-0-|-2-2-2-2-2-2-2-2-|-5-------|-0--0-3--------

Ab|-x-|-3-5-3--x-x-3-5-3-0-|-0-0-0-0-0-0-0-0-|-3-------|-0--0---2--3-2h

Db|-x-|-3-5-3--x-x-3-5-3-0-|-----------------|---------|-0--0----------

Come with me Independent Slave Your walk is on...

Db|-------|-----------------------|------------------|------------------

Bb|-------|-----------------------|------------------|------------------

Gb|-------|-----------------------|------------------|------------------

Db|-------|-0--0-3----------------|-0--0-3-----------|-3--3-x--5-5-5--4-

Ab|-3p2---|-0--0---2----0h2p0-3-5-|-0--0---2-2h3p2---|-3--3-x--5-5-5--2-

Db|-----3-|-0--0------------------|-0--0-----------3-|-3--3-x--5-5-5----

Db|---|-------------------|------------------------|------------------|-

Bb|---|-------------------|------------------------|------------------|-

Gb|---|-------------------|------------------------|------------------|-

Db|-5-|-7--0-3------------|-0--0--3----------------|-0--0-3-----------|-

Ab|-3-|-5--0---2--2h3p2---|-0--0----2-0h2p0-2b3----|-0--0---2-2h3p2---|-

Db|---|----0------------3-|-0--0-------------------|-0--0-----------3-|-

I know I've been...

Db|--------------------|----------------------|--------------------|---

Bb|--------------------|----------------------|--------------------|---

Gb|--------------------|----------------------|--------------------|---

Db|-3--3-x-5-5-5-x-5-3-|-0--0-3---------------|-0--0-3-------------|-0-

Ab|-3--3-x-5-5-5-x-5-3-|-0--0---2--3-2h3p2----|-0--0---2-0h2p0-3-5-|-0-

Db|-3--3-x-5-5-5-x-5-3-|-0--0---------------3-|-0--0---------------|-0-

See the shadow dancing behind me...

Db|----------------|------------------|-------------------|------------

Bb|----------------|------------------|-------------------|------------

Gb|----------------|------------------|-------------------|------------

Db|--0-3-----------|-3--3-x--5-5--4-5-|-7--0-3------------|-0--0-3-----

Ab|--0---2-2h3p2---|-3--3-x--5-5--2-3-|-5--0---2-2h3p2----|-0--0---2-0h

Db|--0-----------3-|-3--3-x--5-5------|----0------------3-|-0--0-------

I am myself...

Db|-----------|------------------|--------------------|----------------

Bb|-----------|------------------|--------------------|----------------

Gb|-----------|------------------|--------------------|----------------

Db|-----------|-0--0-3-----------|-3--3-x-5-5-5-x-5-3-|----------------

Ab|-2p0-2b3---|-0--0---2-2h3p2---|-3--3-x-5-5-5-x-5-3-|-2h3-2h3-2------

Db|-----------|-0--0-----------3-|-3--3-x-5-5-5-x-5-3-|-----------3--0-

So what if I die

Db-|-----------------|-----------------|---------------|---------------

Bb-|-----------------|-----------------|---------------|---------------

Gb-|-----------------|-----------------|---------------|---------------

Db-|-0-0-x-x-0-0-x-x-|-0-0-x-x-0-0-x-x-|---------------|-0-0-x-x-0-0-x-

Ab-|-0-0-x-x-0-0-x-x-|-0-0-x-x-0-0-x-x-|-2h3-2h3-2-----|-0-0-x-x-0-0-x-

Db-|-0-0-x-x-0-0-x-x-|-0-0-x-x-0-0-x-x-|-----------3-0-|-0-0-x-x-0-0-x-

Would they really care?

Db|---|-----------------|---------------|-----------------|-------------

Bb|---|-----------------|---------------|-----------------|-------------

Gb|---|-----------------|---------------|-----------------|-------------

Db|-x-|-0-0-x-x-0-0-x-x-|---------------|-0-0-x-x-0-0-x-x-|-0-0-x-x-0-0-

Ab|-x-|-0-0-x-x-0-0-x-x-|-2h3-2h3-2-----|-0-0-x-x-0-0-x-x-|-0-0-x-x-0-0-

Db|-x-|-0-0-x-x-0-0-x-x-|-----------3-0-|-0-0-x-x-0-0-x-x-|-0-0-x-x-0-0-

Oh they think they are fooling me... They just want me to sit here...

Db|-----|---------------|-----------------|-----------------|-----------

Bb|-----|---------------|-----------------|-----------------|-----------

Gb|-----|---------------|-----------------|-----------------|-----------

Db|-x-x-|---------------|-0-0-x-x-0-0-x-x-|-0-0-x-x-0-0-x-x-|-----------

Ab|-x-x-|-2h3-2h3-2-----|-0-0-x-x-0-0-x-x-|-0-0-x-x-0-0-x-x-|-2h3-2h3-2-

Db|-x-x-|-----------3-0-|-0-0-x-x-0-0-x-x-|-0-0-x-x-0-0-x-x-|-----------

So what if I die?

Db|-----|-----------------|-----------------|---------------|-----------

Bb|-----|-----------------|-----------------|---------------|-----------

Gb|-----|-----------------|-----------------|---------------|-----------

Db|-----|-0-0-x-x-0-0-x-x-|-0-0-x-x-0-0-x-x-|---------------|-0-0-x-x-0-

Ab|-----|-0-0-x-x-0-0-x-x-|-0-0-x-x-0-0-x-x-|-2h3-2h3-2-----|-0-0-x-x-0-

Db|-3-0-|-0-0-x-x-0-0-x-x-|-0-0-x-x-0-0-x-x-|-----------3-0-|-0-0-x-x-0-

Would it bother you?

Db|-------|-----------------|---------------|-----------------|---------

Bb|-------|-----------------|---------------|-----------------|---------

Gb|-------|-----------------|---------------|-----------------|---------

Db|-0-x-x-|-0-0-x-x-0-0-x-x-|---------------|-0-0-x-x-0-0-x-x-|-0-0-x-x-

Ab|-0-x-x-|-0-0-x-x-0-0-x-x-|-2h3-2h3-2-----|-0-0-x-x-0-0-x-x-|-0-0-x-x-

Db|-0-x-x-|-0-0-x-x-0-0-x-x-|-----------3-0-|-0-0-x-x-0-0-x-x-|-0-0-x-x-

Get yourself over my face

Db|---------|---------------|-----------------|-----------------|-------

Bb|---------|---------------|-----------------|-----------------|-------

Gb|---------|---------------|-----------------|-----------------|-------

Db|-0-0-x-x-|---------------|-0-0-x-x-0-0-x-x-|-0-0-x-x-0-0-x-x-|-------

Ab|-0-0-x-x-|-2h3-2h3-2-----|-0-0-x-x-0-0-x-x-|-0-0-x-x-0-0-x-x-|-2h3-2h

Db|-0-0-x-x-|-----------3-0-|-0-0-x-x-0-0-x-x-|-0-0-x-x-0-0-x-x-|-------

Yeah I'm taking the face too

Db|---------|-----------------|-------------------|-----------------|---

Bb|---------|-----------------|-------------------|-----------------|---

Gb|---------|-5-5-5-5-5-5-5---|-------------------|-5-5-5-5-5-5-5---|---

Db|-------3-|-3-3-3-3-3-3-3-4-|-4-4-5-5-5-----3p0-|-3-3-3-3-3-3-3-4-|-x-

Ab|-3-2-3---|---------------2-|-0-2-3-3-3-3h5-----|---------------2-|-x-

Db|---------|-----------------|-------------------|-----------------|---

I know you're faking most of the time... They say you want me...

Db|---------------------|-----------------|-------------------|---------

Bb|---------------------|-----------------|-------------------|---------

Gb|---------------------|-5-5-5-5-5-5-5---|-------------------|-5-5-5-5-

Db|-4-2-2-2-----2h3p2p0-|-3-3-3-3-3-3-3-4-|-4-4-5-5-5-----3p0-|-3-3-3-3-

Ab|-2-0-0-0-2h3---------|---------------2-|-0-2-3-3-3-3h5-----|---------

Db|---------------------|-----------------|-------------------|---------

I want you, I want you behind... But still you slave...

Db|---------|-----------------------|-------------------|--------------

Bb|---------|-----------------------|-------------------|--------------

Gb|-5-5-5---|-----------------------|-7-5-7-------------|--------------

Db|-3-3-3-4-|-x-4-2-2-2-----2h3p2p0-|-7-5-7--3-5-3--x-x-|-3-5-3--x-x-3-

Ab|-------2-|-x-2-0-0-0-2h3---------|-5-3-5--3-5-3--x-x-|-3-5-3--x-x-3-

Db|---------|-----------------------|--------3-5-3--x-x-|-3-5-3--x-x-3-

Wow...

Db|-------|-------------------|--------------------|-------------------

Bb|-------|-------------------|--------------------|-------------------

Gb|-------|-7-5-7-------------|--------------------|-7-5-7-------------

Db|-5-3-0-|-7-5-7--3-5-3--x-x-|-3-5-3--x-x-3-5-3-0-|-7-5-7--3-5-3--x-x-

Ab|-5-3-0-|-5-3-5--3-5-3--x-x-|-3-5-3--x-x-3-5-3-0-|-5-3-5--3-5-3--x-x-

Db|-5-3-0-|--------3-5-3--x-x-|-3-5-3--x-x-3-5-3-0-|--------3-5-3--x-x-

Db-|--------------------|-------------------|--------------------|-----

Bb-|--------------------|-------------------|--------------------|-----

Gb-|--------------------|-7-5-7-------------|--------------------|-7-5-

Db-|-3-5-3--x-x-3-5-3-0-|-7-5-7--3-5-3--x-x-|-3-5-3--x-x-3-5-3-0-|-7-5-

Ab-|-3-5-3--x-x-3-5-3-0-|-5-3-5--3-5-3--x-x-|-3-5-3--x-x-3-5-3-0-|-5-3-

Db-|-3-5-3--x-x-3-5-3-0-|--------3-5-3--x-x-|-3-5-3--x-x-3-5-3-0-|-----

Db|---------------|--------------------|-------------------|------------

Bb|---------------|--------------------|-------------------|------------

Gb|-7-------------|--------------------|-7-5-7-------------|------------

Db|-7--3-5-3--x-x-|-3-5-3--x-x-3-5-3-0-|-7-5-7--3-5-3--x-x-|-3-5-3--x-x-

Ab|-5--3-5-3--x-x-|-3-5-3--x-x-3-5-3-0-|-5-3-5--3-5-3--x-x-|-3-5-3--x-x-

Db|----3-5-3--x-x-|-3-5-3--x-x-3-5-3-0-|--------3-5-3--x-x-|-3-5-3--x-x-

Db|---------|-------------------|--------------------|-----------------

Bb|---------|-------------------|--------------------|-----------------

Gb|---------|-7-5-7-------------|--------------------|-7-5-7-----------

Db|-3-5-3-0-|-7-5-7--3-5-3--x-x-|-3-5-3--x-x-3-5-3-0-|-7-5-7--3-5-3--x-

Ab|-3-5-3-0-|-5-3-5--3-5-3--x-x-|-3-5-3--x-x-3-5-3-0-|-5-3-5--3-5-3--x-

Db|-3-5-3-0-|--------3-5-3--x-x-|-3-5-3--x-x-3-5-3-0-|--------3-5-3--x-

Db|---|--------------------|-------------------|--------------------|---

Bb|---|--------------------|-------------------|--------------------|---

Gb|---|--------------------|-7-5-7-------------|--------------------|-7-

Db|-x-|-3-5-3--x-x-3-5-3-0-|-7-5-7--3-5-3--x-x-|-3-5-3--x-x-3-5-3-0-|-7-

Ab|-x-|-3-5-3--x-x-3-5-3-0-|-5-3-5--3-5-3--x-x-|-3-5-3--x-x-3-5-3-0-|-5-

Db|-x-|-3-5-3--x-x-3-5-3-0-|--------3-5-3--x-x-|-3-5-3--x-x-3-5-3-0-|---

Db|-----------------|--------------------|-------------------|----------

Bb|-----------------|--------------------|-------------------|----------

Gb|-5-7-------------|--------------------|-7-5-7-------------|----------

Db|-5-7--3-5-3--x-x-|-3-5-3--x-x-3-5-3-0-|-7-5-7--3-5-3--x-x-|-3-5-3--x-

Ab|-3-5--3-5-3--x-x-|-3-5-3--x-x-3-5-3-0-|-5-3-5--3-5-3--x-x-|-3-5-3--x-

Db|------3-5-3--x-x-|-3-5-3--x-x-3-5-3-0-|--------3-5-3--x-x-|-3-5-3--x-

Db|-----------|-------------------|--------------------|---------------

Bb|-----------|-------------------|--------------------|---------------

Gb|-----------|-7-5-7-------------|--------------------|-7-5-7---------

Db|-x-3-5-3-0-|-7-5-7--3-5-3--x-x-|-3-5-3--x-x-3-5-3-0-|-7-5-7--3-5-3--

Ab|-x-3-5-3-0-|-5-3-5--3-5-3--x-x-|-3-5-3--x-x-3-5-3-0-|-5-3-5--3-5-3--

Db|-x-3-5-3-0-|--------3-5-3--x-x-|-3-5-3--x-x-3-5-3-0-|--------3-5-3--

Wow...

Db|-----|--------------------|-------------------|--------------------|-

Bb|-----|--------------------|-------------------|--------------------|-

Gb|-----|--------------------|-7-5-7-------------|--------------------|-

Db|-x-x-|-3-5-3--x-x-3-5-3-0-|-7-5-7--3-5-3--x-x-|-3-5-3--x-x-3-5-3-0-|-

Ab|-x-x-|-3-5-3--x-x-3-5-3-0-|-5-3-5--3-5-3--x-x-|-3-5-3--x-x-3-5-3-0-|-

Db|-x-x-|-3-5-3--x-x-3-5-3-0-|--------3-5-3--x-x-|-3-5-3--x-x-3-5-3-0-|-

Db|-------------------|--------------------|-------------------|-------

Bb|-------------------|--------------------|-------------------|-------

Gb|-7-5-7-------------|--------------------|-7-5-7-------------|-------

Db|-7-5-7--3-5-3--x-x-|-3-5-3--x-x-3-5-3-0-|-7-5-7--3-5-3--x-x-|-3-5-3-

Ab|-5-3-5--3-5-3--x-x-|-3-5-3--x-x-3-5-3-0-|-5-3-5--3-5-3--x-x-|-3-5-3-

Db|--------3-5-3--x-x-|-3-5-3--x-x-3-5-3-0-|--------3-5-3--x-x-|-3-5-3-

Db|--------------|-----------------|-------------------|---------------

Bb|--------------|-----------------|-------------------|---------------

Gb|--------------|-2-2-2-2-2-2-2-2-|-5-5-5-5-5-5-------|-2-2-2-2-2-2-2-

Db|--x-x-3-5-3-0-|-2-2-2-2-2-2-2-2-|-5-5-5-5-5-5-------|-2-2-2-2-2-2-2-

Ab|--x-x-3-5-3-0-|-0-0-0-0-0-0-0-0-|-3-3-3-3-3-3-3p2---|-0-0-0-0-0-0-0-

Db|--x-x-3-5-3-0-|-----------------|-----------------3-|---------------

Get away independent... Come with me independent...

Db|---|-------------------|-----------------|-----------------|---------

Bb|---|-------------------|-----------------|-----------------|---------

Gb|-2-|-5-5-5-5-5-5-------|-2-2-2-2-2-2-2-2-|-5-5-5-5-5-5-5-5-|---------

Db|-2-|-5-5-5-5-5-5-------|-2-2-2-2-2-2-2-2-|-5-5-5-5-5-5-5-5-|-0-0---0-

Ab|-0-|-3-3-3-3-3-3-3p2---|-0-0-0-0-0-0-0-0-|-3-3-3-3-3-3-3-3-|-0-0---0-

Db|---|-----------------3-|-----------------|-----------------|-0-0---0-

Get away, now your independent slave...

Db|-----|-------------|---------------|-------------|-------------|-----

Bb|-----|-------------|---------------|-------------|-------------|-----

Gb|-----|-------------|---------------|-------------|-------------|-----

Db|-0---|-0-0---0-0---|---------------|-0-0---0-0---|-0-0---0-0---|-----

Ab|-0---|-0-0---0-0---|-2h3-2h3-2p0---|-0-0---0-0---|-0-0---0-0---|-2h3-

Db|-0---|-0-0---0-0---|-------------3-|-0-0---0-0---|-0-0---0-0---|-----

Db|-----------|-------------|-------------|---------------|------------

Bb|-----------|-------------|-------------|---------------|------------

Gb|-----------|-------------|-------------|---------------|------------

Db|-----------|-0-0---0-0---|-0-0---0-0---|---------------|-0-0---0-0--

Ab|-2h3-2p0---|-0-0---0-0---|-0-0---0-0---|-2h3-2h3-2p0---|-0-0---0-0--

Db|---------3-|-0-0---0-0---|-0-0---0-0---|-------------3-|-0-0---0-0--

Db|--|-------------|---------------|-------------|-

Bb|--|-------------|---------------|-------------|-

Gb|--|-------------|---------------|-------------|-

Db|--|-0-0---0-0---|---------------|-0-0-x-x-x-x-|-

Ab|--|-0-0---0-0---|-2h3-2h3-2p0---|-0-0-x-x-x-x-|-

Db|--|-0-0---0-0---|-------------3-|-0-0-x-x-x-x-|-

Get this song at:  amazon.com sheetmusicplus.com

Share your thoughts

0 Comments found