Days of The New

Days of The New - I Think guitar tab

Days of the new

I think

starts out with the drums but u can kind of fake it with this

e------------------------------

B------------------------------

G------------------------------

D------------------------------

A-1--1--1--1--1--1---1--1--1--- X2

D-1--1--1--1--1--1---1--1--1---

e---------------------------------------------------------

B---------------------------------------------------------

G---------------------------------------------------------

D----------------------------------4b--------------------- X2

A--2h3-2h3-2h3-----2h3-2h3-2-0-----2b---0---3b--0--2b--0--

D--2h3-2h3-2h3-----2h3-2h3-2-0----------0---3b--0--2b--0--

e-------------------------------

B-------------------------------

G-4-----------------------------

D-4--0--3--0--2--0-------------- kind of a quick drag

A-2--0--3--0--2--0-------------- X4

D----0--3--0--2--0--------------

Feels so good outside I think I�ll stay here

If you want to die I think I�ll care

e----------------------------------------------------

B----------------------------------------------------

G----------------------------------------------------

D-------------------------------4b--0------0------0--

A-2h3-2h3-2h3----2h3-2h3-2-0----2b--0--3b--0--2b--0-- X2

D-2h3-2h3-2h3----2h3-2h3-2-0--------0--3b--0--2b--0--

I�m on a gateway without time , the rocks are tumbling

If you want to die I think I�ll care

e----------------------------------------

B----------------------------------------

G-----4---------------------------------- Pick this

D---4-------0-----3----0----2-----0------ X4

A-2-------0-----3----0----2-----0--------

D--------0-----3----0----2-----0---------

I don�t want to say

It happened to me

I�m going away

I�ll think I�ll care

That will pretty much do it for the song just listen to get the right

riffs in the right spot and use this for the change in the middle

e-----------------------------

B-----------------------------

G-----------------------------

D-----------------------------

A-0-2-3-2-3--0-2-3-2-0-------- Play this over and over then back to

Get this song at:  amazon.com sheetmusicplus.com

Share your thoughts

0 Comments found