Days of The New

Days of The New - How Do You Know guitar tab

HOW DO YOU KNOW YOU?

==============================================================================

Author/Artist: Days Of The New

Title: How Do You Know You?

Album: Days Of The New

Transcribed by: Ben McDowell

Email: bmcdowel@ihug.co.nz

==============================================================================

Tuning: Db Ab Db Gb Bb Eb

------------------------------------------------------------------------------

------------------------------------------------------------------------------

-----------2---------0-----2-----0--------------------------------------------

---0---------0---0-----0-----------0---0-----0-----0--------------------------

-----0-----------------------------------------3------------------------------

-0-----0-2-----3---5-----5---5-5-----5---5-5-----5---3--3-3-------------------

Guitar 1: Figure 1 [Verse Pattern]

------------------------------------------------------------------------------

-3--3-3-3---3--3--3-3---3--3-3-3-3--3--3--3-3---------------------------------

-2--2-2-2---2--2--2-2---0--0-0-0-0--0--0--0-0---------------------------------

-0--0-0-0---0--0--0-0---0--0-0-0-0--0--0--0-0---------------------------------

-0--0-0-0---3--3--3-3---5--5-5-5-5--5--5--5-5---------------------------------

-0--0-0-0---0--0--0-0---5--5-5-5-5--5--5--5-5---------------------------------

Guitar 1: Figure 2 [Chorus Chords]

------------------------------------------------------------------------------

-8b9b8---------------------------8b9b8----------------------------------------

-------7---5---------------------------7---5----------------------------------

---------7---7--3-5-5b6b5-3-0-3----------7---7--3-5-5-5b6b5-3-0-3-------------

------------------------------------------------------------------5p3h5-------

------------------------------------------------------------------------------

Guitar 2: Figure 3 [Intro and Bridge Lead]

------------------------------------------------------------------------------

-3--3-3-3---3--3--3-3---3-----------------------------------------------------

-2--2-2-2---2--2--2-2---0-----------------------------------------------------

-0--0-0-0---0--0--0-0---0---0-3------3-5--------------------------------------

-0--0-0-0---3--3--3-3---5--------3-5------------------------------------------

-0--0-0-0---0--0--0-0---5-----------------5-3---------------------------------

Guitar 2: Figure 4 [Chorus Chords and Lead]

-108-----8------------------------------------------------------------------

------10----10-8---------8-9-10-9-8----8-9-10-9-8----8-9-10-9-8-----------6---

-----------------10-7-10------------10------------10------------10------------

--------------------------------------------------------------------5-6-7-----

------------------------------------------------------------------------------

------------------------------------------------------------------------------

Guitar 1: Figure 5 [Solo]

------------------------------------------------------------------------------

------------------------------------------------------------------------------

-5-57----7-5-------------------5-7-79-7-5-5h7p5-------5---------------------

--------------7-5---------3-57-------------------7p5h7---------5h6h7-3p2-----

------------------8-5-3-5---------------------------------3h4h5-----------3---

------------------------------------------------------------------------------

------------------------------------------------------------------------------

-------10----10-8-------------------------------------------------------------

--------------------10--9------9v----10--7---5-5----------------5-------5-----

-2--------12---------------10-----------------------------5-7-8---8-7-5---5---

---35----------------------------------------------5-7-8---------------------

------------------------------------------------------------------------------

------------------------------------------------------------------------------

------------------------------------------------------------------------------

---5-----5--------------------------------------------------------------------

---------------------5--------------------------------------------------------

-8---8-7---7-8-7-5-8---5-7v----8-5--------------------------------------------

------------------------------------------------------------------------------

------------------------------------------------------------------------------

------------------------------------------------------------------------------

-----------2---------0-----2-----0--------------------------------------------

---0---------0---0-----0-----------0---0-----------3--------------------------

-----0---------------------------------------3-4-5---3-3h5--------------------

-0-----0-2-----3---5-----5---5-5-----5---5-5----------------------------------

Guitar 1: Figure 6 [Outro]

-5-5-5-5--5-5-5-5--5-5-5--5-5-5-5--5-5---------------------------------------

------------------------------------------------------------------------------

-7-7-6-7--7-7-6-7--6-7-9--7-7-6-7--6-7---------------------------------------

------------------------------------------------------------------------------

------------------------------------------------------------------------------

------------------------------------------------------------------------------

Guitar 2: Figure 7 [Outro]

SONG LAYOUT:

Guitar 1: [Figure 1] [Figure 1] [Figure 1] [Figure 1]

Guitar 2: [ Figure 3 ]

Guitar 1: [Figure 1] [Figure 1] [Figure 1] [Figure 1]

Guitar 2:

Guitar 1: [Figure 1] [Figure 1] [Figure 1] [Figure 1]

Guitar 2:

Guitar 1: [Figure 2] [Figure 2] [Figure 2] [Figure 2]

Guitar 2: [Figure 4] [Figure 4] [Figure 4] [Figure 4]

Guitar 1: [Figure 1] [Figure 1] [Figure 1] [Figure 1]

Guitar 2: [ Figure 3 ]

Guitar 1: [Figure 1] [Figure 1] [Figure 1] [Figure 1]

Guitar 2:

Guitar 1: [Figure 2] [Figure 2] [Figure 2] [Figure 2]

Guitar 2: [Figure 4] [Figure 4] [Figure 4] [Figure 4]

Guitar 1: [ Figure 5 ]

Guitar 2: [Figure 4] [Figure 4] [Figure 4] [Figure 4]

Guitar 1: [Figure 2] [Figure 2] [Figure 2] [Figure 2]

Guitar 2: [Figure 4] [Figure 4] [Figure 4] [Figure 4]

Guitar 1: [Figure 6] [Figure 6] [Figure 6] [Figure 6]

Guitar 2: [Figure 7] [Figure 7] [Figure 7] [Figure 7]

Guitar 1: [Figure 6] [Figure 6] [Figure 6]

Guitar 2: [Figure 7] [Figure 7] [Figure 7]

Get this song at:  amazon.com sheetmusicplus.com

Share your thoughts

0 Comments found