Days of The New

Days of The New - Hidden Track Pt 2 guitar tab

"Hidden track pt.2" (days of the new ORANGE)

transcribed by: jonathan dupuis

questions/comments: jonerocket@hotmail.com

h = hammer on

p = pull off

/ = slides

= harmonic

*note- these are just the different parts in the order that they occur. it's up

to you to determine how many times to repeat each part. listen to the

recording and it shouldn't be difficult.

Db-----------------------------------------

Bb-----------------------------------------

Gb-----------------------------------------

Db-----0----0---0----0---0----0---0----0---

Ab-------------------------

Db-------------------------

Db-----------------------------------------

Bb-----------------------------------------

Gb-------------------------------------0---

Db-----0----0---0----0---0----0---0--------

Ab-------------------------

Db-------------------------

Db--------------------------------------

Bb--------------------------------------

Gb--------------------------------------

Db----0---0---0---0---0---0---0---0-----

Ab--------------------------

Db--------------------------

Db-------------------

Bb-------------------

Gb-------------------

Db--0-0-0-0-0-0-0-0--

Ab-0---0---0---0-----

Db---0---0---0---0---

Db-------------------------------------------------

Bb-------------------------------------------------

Gb-------------------------------------------------

Db--0-2-3-3/6-0-2-3-3/6-0-2-3/6-6-6-7-6-2h3p2p0----

Ab-------------------------------------------------

Db-0-0-0-0---0-0-0-0---0-0-0---0-0---0-0-----------

Db---------------------

Bb---------------------

Gb---------------------

Db--7--6--3--3---3-----

Ab---8--7---0-0-0------

Db-0--0--0-0---3--3-0--

Db---------------------------------------

Bb---------------------------------------

Gb---------------------------------------

Db---3-2---0-3-2---0--3-2---0-3-2-3/5-3--

Ab-------3-------3--------3--------------

Db--0-0-0-0-0-0-0-0--0-0-0-0-0-0-0---0---

Get this song at:  amazon.com sheetmusicplus.com

Share your thoughts

0 Comments found