Days of The New

Days of The New - Hidden Track Pt 1 guitar tab

"Hidden track pt.1" (days of the new ORANGE)

transcribed by: jonathan dupuis and tim e

questions/comments: jonerocket@hotmail.com

h = hammer on

p = pull off

/ = slides

Db----------------------------------------------------------------------------------------

Bb----------------------------------------------------------------------------------------

Gb-----------0------0---0h2----2----2-0------0----7------7----5------5----5-5-0------0---

Db-0---0-0---0---0--0---0----0-0----0-0---0--0----0---0--0----0---0--0----0-0--0---0--0---

Ab-0--0------0--0---0---0---0-------0-0--0---0----0--0---0----0--0---0----0-0--0--0---0---

Db-0-0--0----0-0--0-0---0--0--0-----0-0-0--0-0----0-0--0-0----0-0--0-0----0-0--0-0--0-0---

Db------------------------------------------------------------------------------------------

Bb------------------------------------------------------------------------------------------

Gb-0h2--2h3p2p0-2-----2-2/-7-7-7-5-5h7----2--2h3p2p0-2------2-2-----------------------------

Db-0------------0-----0-0--0-0-0-0-0------0----------0---------5-2--2-2-0-2---0-3--3-3-0-3--

Ab-0---0--------0-----0-0--0-0-0----------0----------0------------------------0-------------

Db-0--0---------0-----0-0--0-0-0----------0-0--------0------------------------0-------------

Db---------------------------------------------------------------------------------------------

Bb---------------------------------------------------------------------------------------------

Gb----------------------------------0-0-0-0------0---0-0-0-0--2----2---2-2-2-2h3p2p0--2-p0--0--

Db-3-3-3-3-3-2h3p2p0-0---0-0--------0-0-0-0---0--0---0-0-0-0--0-0--0---0-0-0-0--------0-----0--

Ab-------------------0----------0-0-0-0------0---0---0-0-0-0--0--0-0---0-0-0----------0---0-0--

Db-------------------0-0--0-----0-0-0-0-----0--0-0---0-0-0-0--0----0---0-0-0----------0---0-0--

Db------------------------------------------------------------------------------------------

Bb------------------------------------------------------------------------------------------

Gb-0-0-0-0-0-0-0/7-7---7-7-5-5h7--7-7-7-7-7-7-5---5-5-5----5-5-5-5--0-----0---0------------

Db-0-0-0-0-0-0-0---0---0-0-0-0----0-0-0-0-0-0-0---0-0-0----0-0-0-0---0---0-0-0-0------------

Ab-0-0-0-0-0-0-0---0---0-0-0-0----0-0-0-0-0-0-----0-0-0----0-0-0-0---0---0-0-0-0------------

Db-0-0-0-0-0-0-0---0---0-0-0-0----0-0-0-0-0-0-----0-0-0----0-0-0-0---0---0-0-0-0------------

Db------------------------------------------------------------------------------------------

Bb------------------------------------------------------------------------------------------

Gb-0-0-0-0-0-0-0--2--2h3p2p0-2---2-2-2-2--7---75-5-5h7----7-7-7-7-7-7--2-2h3p2p0-2--------

Db-0-0-0-0-0-0-0--0-0--------0---0-0-0-0----------------------------------------------------

Ab-0-0-0-0-0-0-0--0-------------------------------------------------------------------------

Db-0-0-0-0-0-0-0--0-------------------------------------------------------------------------

Db------------------------------------------------

Bb------------------------------------------------

Gb-2-2-2-2----------------------------------------

Db--------5-2---2-2-0-2---2--2h3p2p0-0---0-0------

Ab-----------------------0--0--------0--0---------

Db----------------------0------------0-0--0-------

Db-------------------------------------------------------------

Bb-------------------------------------------------------------

Gb-------------------------------------------------------------

Db-0----0-0h2---0-2-2h3---2--3---3h5p3p2-2---2h3p2p0---------

Ab-0---3--0-----0---------0--------------3---0---------------

Db-0------0-----0---------0--------------5---0---------------

Db-------------------------------------------------------------

Bb-------------------------------------------------------------

Gb-----------------------------------------0-------------------

Db-0----0-0h2---0-2-2h3---2-3-3h5p3p2------2---2/32p0---------

Ab-0---3--0-----0---0-----0----------5p3p0-3-------------------

Db-0------0-----0---0-----0----------------5-------------------

Db-------------------------------------------------------------------

Bb-------------------------------------------------------------------

Gb-5/7---5-7-7/9---7-9-9/10---9-10-10h12p10p9-9-----9h10p97---------

Db-0-----0---0-----0---0------0---------------10----0----------------

Ab-0-----0---0-----0---0------0---------------10----0----------------

Db-0-----0---0-----0---0------0---------------------0----------------

Db--------------------------------------------------------------------

Bb--------------------------------------------------------------------

Gb-5/7---5-7-7/9---7-9-9/10---9-10-12p10p9-10p8p7-9p7p6/9--9----------

Db-0-----0---0-----0---0------0----------------------------10---------

Ab-0-----0---0-----0---0------0----------------------------10---------

Db-0-----0---0-----0---0------0---------------------------------------

Db----------------------------

Bb----------------------------

Gb-9h10p96------------------

Db-----------------0----------

Ab--------------3p0-----------

Db-----------3p0--------------

Get this song at:  amazon.com sheetmusicplus.com

Share your thoughts

0 Comments found