Days of The New

Days of The New - Hang On To This guitar tab

===============================================================================

Hang on to This

===============================================================================

Transcribed by: benig

Tabbed by: benig

email: benigdotn@yahoo.com.br

"Hang on to This" by Days of the New

Written by Travis Meeks

Tuning: D# F C G A# D#

|------------------------------------------------------------|

|------------------------------------------------------------|

|--------3~-------------3~-------------3~-------------3~-----|

|------------------------------------------------------------|

|-00-0-0----000--00-0-0----000--00-0-0----000--00-0-0----000-|

|-22-2-0----020--22-2-0----020--22-2-0----020--22-0-2----020-|

|-------------------------0------------------------------|

|-----------------------------0--------------------------|

|---------------------------3----------------------------|

|-33-3--33-3--33-3--33-3---------------------------------|

|-55-5--55-5--55-5--55-5---------------------------------|

|-00-0--00-0--00-0--00-0---------------------------------|

(0:20) (0:22) (0:24) (0:26) (0:27) (0:29) (0:30)

|------|------|------|------|------|------|--------------0-----|

|------|------|------|------|------|------|------------------0-|

|------|------|------|------|------|------|----------------3---|

|-0-3--|-0-3--|-0-3--|-0-3--|-0-3--|-0-3--|-3p0-3h5-5b-3-------|

|------|------|------|------|------|------|--------------------|

|------|------|------|------|------|------|--------------------|

(0:32) (0:39) (0:43)

|------------|-------|-----------------------------------------|

|------------|-------|-----------------------------------------|

|------------|-------|-----------------------------------------|

|----------3-|-----3-|-----------------------------------------|

|-7\3-5h3-5-|-5h3-5-|-/7~~--/7~-5~----------------------------|

|------------|-------|-----------------------------------------|

|-------0-------0-----0----0-------------0-------0---0------0--|

|----0------0-0-----0-----------0-----0------0-0-----0-0----0--|

|---3-3------0-----5-----0-----------3-3------0------0---0--0--|

|-0-------2-------0-----7----------0-------2---------0------0--|

|----------------------------9-----------------------0---------|

|--------------------------------------------------------------|

|------------------------------------0--0------------0-------------|

|-----------------------------------12----12----12-----12----------|

|-----------------------------------12-------12-----------12-10-8~-|

|-----------------------------------12-----------------------------|

|-----------------------------------12-----------------------------|

|-0--2p0-2p0-2/5~--0--2p0-2p0-2/5~---------------------------------|

Get this song at:  amazon.com sheetmusicplus.com

Share your thoughts

0 Comments found