Days of The New

Days of The New - Got To Be You guitar tab

Author/Artist: Days Of The New

Title: Got To Be You

Transcribed by: Keith Nida

Email: KeithNida84@yahoo.com

dropped d 1/2 step down. its an awesome song. Enjoy!

-|----------------------------------------------------------------------------

-|----------------------------------------------------------------------------

-|----------------------------------------------------------------------------

-|--0--------3-----5--------3-----5--0-------------------0--0-----------------

-|--0--3--5-----5--5--3--5-----5--5--0-------------------0--0--------3--------

-|--0--------------5--------------5--0-------------------0--0--3--5-----5--3--

Intro 2nd part to intro

------------------------------------------------------------------------------

------------------------------------------------------------------------------

------------------------------------------------------------------------------

-----------0--0--------------------3--0--0----------------------------0--0----

-----3-----0--0--------3-----3--5-----0--0--------3----------3--------0--0----

--5-----5--0--0--3--5-----5-----------0--0--3--5----5--3--5-----5--3--0--0----

------------------------------------------------------------------------------

------------------------------------------------------------------------------

--------------------------------------------5--5------------------------------

-3-3--0-0-----0--0--0--3--0--0--5--5--0--0--5--5------------------------------

-3-3--0-0-----0--0--0--3--0--0--5--5--0--0--3--3------------------------------

-3-3--0-0-33--0--0--0--3--0--0--5--5--0--0------------------------------------

You got to make a trail. I think thats what he says.

------------------------------------------------------------------------------

------------------------------------------------------------------------------

--------5--5------------------------------------------------------------------

--0--0--5--5-----------------------3------------------------------------------

--0--0--3--3--------------------5-----5--3--5--3-------------0--3--5----------

--0--0--------0--3--5--3--------------------------3--0--3--5------------------

Got To Be You Got To Be You

------------------------------------------------------------------------------

------------------------------------------------------------------------------

--------------------------------------------5--5------------------------------

--0--0--3--3--0--0--3--3--0--0--5--5--0--0--5--5------------------------------

--0--0--3--3--0--0--3--3--0--0--5--5--0--0--3--3------------------------------

--0--0--3--3--0--0--3--3--0--0--5--5--0--0------------------------------------

Choke on my shit, all my shit

Get this song at:  amazon.com sheetmusicplus.com

Share your thoughts

0 Comments found