Days of The New

Days of The New - Giving In guitar tab

"Giving In" (days of the new RED)

transcribed by: jonathan dupuis

questions/comments: jonerocket@hotmail.com

*[note: this isn't the exact tab, this is my version designed to be played by one guitar.]*

h = hammer on

p = pull off

v = vibrato

~ = strumming

/ = slides

^ = bend

[intro / bridge pt.1]

D--6p5-6p5-5--1p0-1p0-0------1p0-1p0-0-------------------

C---------5----------0--------------0--2p0-2p0-----------

G----------------------------------------------3-0-3/7---

C-0--------------------0---------------------------------

G-0-------------------3-0--------------------------3/7---

C-0------------------------0-----------------------------

D--6p5-6p5-5--1p0-1p0-0------1p0-1p0-0----------------------

C---------5----------0--------------0--2p0-2p0--------------

G---------------------------------------------3-0-----------

C-0---------------------------------------------------0-----

G-0---------------------6^-------------------------0-3------

C-0---------------------------------------------------------

D---------------------------------------------------------------

C--2p0-2p0-0--1p0-1p0------------2p0-2p0-0--1p0-1p0-------------

G---------3----------3-0----------------3----------3-0----------

C-0-------------------------0--0--------------------------0-----

G-0----------------------0-3---0-----------------------0-3------

C-0----------------------------0--------------------------------

D---------------------------------------------------------------

C--1p0-1p0-----1p0-1p0-----------2p0-1p0-0--2p0-1p0-------------

G---------3-0---------3-0---------------3----------3-0----------

C-0--------------------------0-0--------------------------0-----

G-0-----------------------0-3--0-----------------------0-3------

C-0----------------------------0--------------------------------

[verse 1]

D---------------------------------------------------------------------------0----

C-0-------------------------------------------------------------------------0----

G-5----------------------------------0--------------------------------------0----

C-0-0------4-5-4----------0-------10-5-5--5--4-5--7-------------------0-1-3-----

G-5---3/5-0------6v5-6v5-3----0-0-------------------6v-6/9-6v-5---0-2-3----------

C----0---0------0----------0--0-0------------------------------------------------

D---------------------------------------------------------------------------------

C---------------------------------------------------------------------------------

G-----------------------------------0---------------------------------------------

C--0------4-5-4----------0-------10-5-5--5--4-5--7----------------1p0-0-1p0-0----

G----3/5-0------6v5-6v5-3----0-0-------------------6v-6/9-6v-5----0---0-----0-----

C---0---0------0----------0--0-0--------------------------------------------------

[pre chorus]

D------------------------------------------------------

C------------------------------------------------------

G------------------------------------------------------

C------0-----0-----0-----2-0-----------2-0----2-0------

G--2-3v--2-3v--2-3v--2-3v---2-3v-0-2-3v---2-3v---------

C-0-----0-----0-----0-------------0--------------------

[chorus]

D-----------------------------------------------

C-0--0---0~~~~~-0~~~~~-0---0---0~~~-0~~~--------

G-9--10--12~~~~-12~~~~-15--10--9~~~-9~~~--------

Get this song at:  amazon.com sheetmusicplus.com

Share your thoughts

0 Comments found