Days of The New

Days of The New - Freak guitar tab

*-*-*-*-*-*-*-*-*-*-*-*-*-*-*-*-*-*-*-*-*-*-*-*-*-*-*-*-*-*-*-*-*-*-*-*-*

FREAK

*-*-*-*-*-*-*-*-*-*-*-*-*-*-*-*-*-*-*-*-*-*-*-*-*-*-*-*-*-*-*-*-*-*-*-*-*

Song: Freak

Band: Days of The New

Album: Days of the New (1997)

Tabbed by: Toby Biggs (tbiggs@rockyview.ab.ca)&

Jonathan Bienert

Double dropped D tuning D-a-d-g-b-d

Tuned down half a step.

I will completely tab out the first minute or so until the song

picks up. After that I'll refer to figures that preceed the lyrics.

Hopefully it should be pretty easy to understand, and after you

learn the beginning, you've learned the majority of the song.

I don't really feel like doing the solo, but might add it on later.

****************************************

GUITAR 1

d---------------|--------------|---------------|--------------|

b-------3-------|--------------|------3--------|--------------|

g---2-----2---2-|-----2------2-|---2-----2---2-|-----2------2-|

d-----0-----0---|---0------0---|----0-----0----|---0------0---|

a---------------|--------------|---------------|--------------|

D-0-------------|-3------5-----|-0-------------|-3----3/5-----|

GUITAR 2

d---------------|--------------|---------------|--------------|

b---------------|--------------|---------------|--------------|

g---------------|--------------|---------------|--------------|

d---------------|--------------|---------------|--------------|

a-3h5-----------|--------------|-3-5-----------|-5---3--0-----|

D---------------|--------------|---------------|----------5-0-|

****************************************

GUITAR 1

d--------------|-----------------|-------------------|

b-------3------|-----3-----3-----|-------------------|

g---2-----2--2-|---2-----2---2---|----------------2--|

d----0-----0---|-2-----1-------1-|---0--0--0--0--0---|

a--------------|-----------------|--0--0--0--0--0----|

D-0------------|-----------------|-5--6--3--5--0-----|

GUITAR 2

d--------------|-----------------|-------------------|

b--------------|-----------------|-------------------|

g--------------|-----------------|-------------------|

d--------------|-----------------|-------------------|

a--------------|-----------------|-5-3-3-5-3-3-5-3-3-|

D--------------|-----------------|-------------------|

****************************************

GUITAR 1

d-----------------------|----------------------|-----------------|

b-----------------------|----------------------|-----------------|

g-----------------------|--------------------2-|-----------------|

d----0---0---0---0---0--|---0---0---0---0---0--|---0---0---0---0-|

a---0---0---0---0---0-3-|--0---0---0---0---0---|--0---0---0---0--|

D--5---6---3---5---0----|-5---6---3---5---0----|-5---6---3---5---|

GUITAR 2

d-----------------------|----------------------|-----------------|

b-----------------------|----------------------|-----------------|

g-----------------------|----------------------|-----------------|

d-----------------------|----------------------|-----------------|

a-5-5-3-5-5-3-5-5-3-5-5-|-5-5-3-5-5-3-5-5-3-5-5|-5-5-3-5-5-3-5-5-|

D-----------------------|----------------------|-----------------|

****************************************

GUITAR 1

d---------------|--------------|---------------|--------------|

b-------3-------|--------------|------3--------|--------------|

g---2-----2---2-|-----2------2-|---2-----2---2-|-----2-----2--|

d-----0-----0---|---0------0---|----0-----0----|---0------0---|

a---------------|--------------|---------------|--------------|

D-0-------------|-3------5-----|-0-------------|-3----3/5-----|

Watch the time Wait for me

GUITAR 2 (harmonics) 7 12

d---------------|--------------|---------------|------------X-|

b---------------|--------------|---------------|------x-------|

g---------------|--------------|---------------|--------------|

d---------------|--------------|---------------|--------------|

a---------------|--------------|---------------|--------------|

d---------------|--------------|---------------|--------------|

****************************************

GUITAR 1

d---------------|--------------|---------------|--------------|

b-------3-------|--------------|------3--------|------3---3---|

g---2-----2---2-|-----2------2-|---2-----2---2-|-----2---2-2--|

d-----0-----0---|---0------0---|----0-----0----|---2----1---1-|

a---------------|--------------|---------------|--------------|

D-0-------------|-3------5-----|-0-------------|--------------|

Patience is reality

GUITAR 2

d---------------|--------------|---------------|--------------|

b---------------|--------------|---------------|--------------|

g---------------|--------------|---------------|--------------|

d---------------|--------------|---------------|--------------|

a---------------|--------------|---------------|--------------|

d---------------|--------------|---------------|--------------|

****************************************

GUITAR 1

d---------------|--------------|---------------|--------------|

b-------3-------|--------------|------3--------|--------------|

g---2-----2---2-|-----2------2-|---2-----2---2-|-----2-----2--|

d-----0-----0---|---0------0---|----0-----0----|---0------0---|

a---------------|--------------|---------------|--------------|

D-0-------------|-3------5-----|-0-------------|-3----3/5-----|

I don't know How it feels

GUITAR 2

d---------------|--------------|---------------|--------------|

b---------------|--------------|---------------|--------------|

g---------------|--------------|---------------|--------------|

d---------------|--------------|---------------|--------------|

a-3h5-----------|--------------|---------------|-5--3--0------|

d---------------|--------------|---------------|---------5--0-|

****************************************

d---------------|------------|----------------|----------------|

b------3--------|----3---3---|----------------|----------------|

g---2-----2---2-|---2---2-2--|---------------2|----------------|

d----0-----0----|-2----1---1-|--0--0--0--0--0-|--0--0--0--0--0-|

a---------------|------------|-0--0--0--0--0--|-0--0--0--0--0-3|

D-0-------------|------------|5--6--3--5--0---|5--6--3--5--0---|

No, I can't see With your foot in my face

your foot in my face

GUITAR 2

d---------------|------------|---------------|-----------------|

b---------------|------------|---------------|-----------------|

g---------------|------------|---------------|-----------------|

d---------------|------------|---------------|-----------------|

a---------------|------------|---------------|-----------------|

d---------------|------------|---------------|-----------------|

****************************************

GUITAR 1

d----------------------|----------------------|-------------|

b----------------------|----------------------|-----3-------|

g--------------------2-|----------------------|--2----2---2-|

d---0---0---0---0---0--|---0---0---0---0------|----0----0---|

a--0---0---0---0---0---|--0---0---0---0-------|-------------|

D-5---6---3---5---0----|-5---6---3---5--------|-0-----------|

Your foot in my face Your foot in my face-------------

GUITAR 2

d-----------------------|---------------------|-------------|

b-----------------------|---------------------|-------------|

g-----------------------|---------------------|-------------|

d-----------------------|---------------------|-------------|

a-5-5-3-5-5-3-5-5-3-5-5-|-5-5-3-5-5-3-5-5-----|-------------|

D-----------------------|---------------------|-------------|

****************************************

GUITAR 1

d--------------|---------------|--------------|

b--------------|------3--------|--------------|

g-----2------2-|---2-----2---2-|-----2-----2--|

d---0------0---|----0-----0----|---0------0---|

a--------------|---------------|--------------|

D-3------5-----|-0-------------|-3----3/5-----|

(cont.) face------------------------

GUITAR 2

d--------------|---------------|--------------|

b--------------|---------------|--------------|

g--------------|---------------|--------------|

d-----3--0-----|---------------|--------------|

a-3h5------3---|---------------|-5--3--0------|

d--------------|---------------|---------5--0-|

****************************************

GUITAR 1

d---------------|--------------|---------------|--------------|

b-------3-------|----3---3-----|------3--------|----3----3----|

g---2-----2---2-|---2---2-3----|---2-----2---2-|---2----2-2---|

d-----0-----0---|--2---1---1---|----0-----0----|--2----1---1--|

a---------------|--------------|---------------|--------------|

D-0-------------|--------------|-0-------------|--------------|

(cont.) face---------------------------------- (drums)

GUITAR 2

d---------------|--------------|---------------|--------------|

b---------------|--------------|---------------|--------------|

g---------------|--------------|---------------|--------------|

d---------------|--------------|---------------|--------------|

a-3h5-----------|--------------|---------------|-5--3--0------|

d---------------|--------------|---------------|---------5--0-|

***************************************

Now I'll give the lyrics and refer to the following figures.

*-*-*-*-*-*-*-*-*-*-*-*-*-*-*-*-*-*

FIGURE 1 (the main one)

d---------------|--------------|---------------|--------------|

b-------3-------|--------------|------3--------|--------------|

g---2-----2---2-|-----2------2-|---2-----2---2-|-----2------2-|

d-----0-----0---|---0------0---|----0-----0----|---0------0---|

a---------------|--------------|---------------|--------------|

D-0-------------|-3------5-----|-0-------------|-3----3/5-----|

continued

d--------------|-----------------|

b-------3------|-----3-----3-----|

g---2-----2--2-|---2-----2---2---|

d----0-----0---|-2-----1-------1-|

a--------------|-----------------|

D-0------------|-----------------|

*-*-*-*-*-*-*-*-*-*-*-*-*-*-*-*-*-*-*

FIGURE 2 (usually follows figure 1)

d-----------------------|----------------------|

b-----------------------|----------------------|

g---------------------2-|----------------------|

d-----0--0---0---0---0--|---0---0---0---0---0--|

a---0---0---0---0---0---|--0---0---0---0---0-2-|

D--5---6---3---5---0----|-5---6---3---5---0----|

*-*-*-*-*-*-*-*-*-*-*-*-*-*-*-*-*-*-*

FIGURE 3 (chorus)

d----------------------------|

b----------------------------|

g----------------------------|

d--/666--3--0----/666--3--0--|

a--/666--3--0----/666--3--0--|

D--/666--3--0----/666--3--0--|

*-*-*-*-*-*-*-*-*-*-*-*-*-*-*-*-*-*-*

FIGURE 4 (solo type thing)

d--------------------------------------------

b--------------------------------------------

g--------------------------------------------

d--------------------------------------------

a--------------------------------------------

D--------------------------------------------

*-*-*-*-*-*-*-*-*-*-*-*-*-*-*-*-*-*-*

FIGURE 5

d----------------------------|

b----------------------------|

g----------------------------|

d---00000-66666-55555-55555--|

a---00000-66666-55555-55555--|

D---00000-66666-55555-55555--|

*-*-*-*-*-*-*-*-*-*-*-*-*-*-*-*-*-*-*

FIGURE 6

d----------------------------|

b----------------------------|

g----------------------------|

d---66666-55555-33333-00-----|

a---66666-55555-33333-00-----|

D---66666-55555-33333-00-----|

*-*-*-*-*-*-*-*-*-*-*-*-*-*-*-*-*-*-*

FIGURE 7

GUITAR 2

d--------|----------------|---------------|

b-0h3----|----------------|---------------|

g--------|--5p4-2-4p3-0-2-|---------------|

d--------|----------------|-----3---------|

a--------|----------------|-3h5---5-3-5-3-|

d--------|----------------|---------------|

LYRICS

(1:15) I don't know how it feels Figure 1

I can't decide "

"

No, I can't see "

With your nose in my business Figure 2

Your ass in my space "

Your life "

As my problems "

Your foot "

In my face "

Figure 3

I won't "

I can't "

I'm lost "

I'm a freak "

(repeated) "

Figure 1

Trust my lie "

And you will die "

I can't succeed "

Now I can't fail "

I don't know "

How it feels "

I can't decide "

"

No, I can't see "

With your nose in my business Figure 2

Your ass in my space "

Your life "

As my problems "

Your foot "

In my face "

Figure 3

I won't "

I can't "

I'm lost "

I'm a freak "

(repeated) "

(solo deal)

Searching for things Figure 5

I can't see "

Mountains in front of me "

No, nothing will conquer "

My existence "

Fear will discover "

My Brain "

CHORUS Figure 3

"

I'm a freak Figure 6

(repeated) "

Figure 1&7

Your foot in my face "

Get this song at:  amazon.com sheetmusicplus.com

Share your thoughts

0 Comments found