Days of The New

Days of The New - Freak guitar chord

Date: Fri, 5 Jun 1998 13:33:53 -0700 (PDT)

From: Mitch Weier

Subject: d/days_of_the_new/freak.Crd

"Freak" By Days of the New taken from the self titled album

Guitar and Lyrics written by Travis Meeks

Tuning: Drop D-all notes droped 1/2 step

Verse

G-------7--7--7--7-----7--7--------------7--7-----0--0-0----2--------------

D------7-7---7--7-----7-7-----0-----0---7-7------0--0------2---3------------

A-----5---5----------5---5---0-----0---5---5--6/7--6--6---0---3-------------

D----0------5--6----0-------3---3/5---0----------------------3-------------

Bridge

G-----------------------------------2-

D-----0--0--0--0--0----0--0--0--0--0--

A----0--0--0--0--0-0--0--0--0--0--0---

D---5--6--3--5--0----5--6--3--5--0----

Chorus

D--6-6-6--3--0-

A--6-6-6--3--0-

D--6-6-6--3--0-

The part where Travis sings "I'm a freak. I'm a freak.

Lord knows I'm a freak. Yeah."

D--6-6-6-6-6-5-5-5-5-5--3-5-3-0-3-5-0-

A--6-6-6-6-6-5-5-5-5-5--3-5-3-0-3-5-0-

D--6-6-6-6-6-5-5-5-5-5--3-5-3-0-3-5-0-

Interlude to "Searching for things I can't see."

D--6-6-6-6-6-5-5-5-5-5--3-5-3-0-3-3-

A--6-6-6-6-6-5-5-5-5-5--3-5-3-0-3-3-

D--6-6-6-6-6-5-5-5-5-5--3-5-3-0-3-3-

"Searching for things.."

D-0-0-0-6-6-6-5-------------------------------

A-0-0-0-6-6-6-5-------------------------------

D-0-0-0-6-6-6-5-------------------------------

There it is. If you have any questions/comments my e-mail is

Brak18_98@yahoo.com. If you think it sucks, yea, well YOU SUCK!!

This my "version" of it.

Tabbed by Mitch Weier

Lyrics

Watch the time

wait for me

patience is reality

I don't know how it feels

no, I can't see with your foot in my face

I don't know how it feels

I can't decide

No, I can't see

with your nose in my business

Your ass in my space

Your life

as my problem

Your foot

in my face

I won't

I can't

I'm lost

I'm a freak

Trust my lie

and you will die

I can't succeed

Now I can't fail

I don't know

how it feels

I can't decide

Searching for things

I can't see

Mountains in front of me

No nothing will conquer

my existence

Fear will not discover

my brain

I'm a freak

Your foot in my face

Get this song at:  amazon.com sheetmusicplus.com

Share your thoughts

0 Comments found