Days of The New

Days of The New - Flight Response guitar tab

Author/Artist: Days Of The New

Title: Flight Response

Album: Green

Transcribed by: Keith Nida

Email: KeithNida84@yahoo.com

Open C#7 Tuning

6-1 C# G# C# G# B C#

-|--------------1-4-1---------------------------------------------------------

-|----------------------------------------------------------------------------

-|----------------------------------------------------------------------------

-|--/--4--1--0--------/4-1----------------------------------------------------

-|----------------------------------------------------------------------------

-|----------------------------------------------------------------------------

Intro

-|------0-----0---0---------0---0---0-----------------------------------------

-|--------0---------0-----------------0---------------------------------------

-|----0---------0---------0-------0-------------------------------------------

-|----------------------------------------------------------------------------

-|--5-------5---------bv5-----5-----------------------------------------------

-|----------------------------------------------------------------------------

Repeat this for a while. It is also the verse.

-|--0----0--0--0--------------------------------------------------------------

-|--0----0--0--0--------------------------------------------------------------

-|--2/3--3--3--3---3--3--6----------------------------------------------------

-|--0----0--0--0--------------------------------------------------------------

-|-----------------3--3--6----------------------------------------------------

-|----------------------------------------------------------------------------

etc.

-|------------------|-----------------|----------------|----------------------

-|------------------|-----------------|----------------|----------------------

-|----0-----0---0---|-0-----0---------|----------------|-0----0---0---0-------

-|------0-3---0-----|---0-5-----0-----|---0-----0---0--|---03-----0---0-------

-|--5-------------3-|---------------0-|-----0-3---0----|--------5---5---------

-|------------------|---------3---4---|-0-------------3|----------------------

Outro. Well I won't be safe again.

Get this song at:  amazon.com sheetmusicplus.com

Share your thoughts

0 Comments found