Days of The New

Days of The New - Fighting With Clay (Live) guitar tab

Fighting With Clay

================================================================================

Artist : Days of the New

Album : Days of the New Live

================================================================================

Legend

-----

h = hammer-on

p = pull-off

b = bend

r = bend release

/ = slide up/down

= natural harmonic

[5] = artifical harmonic

~ = vibrato

tr = trill

Db|-0/0-0-0--0-0-0-0--0-0-0-0--0-0-0-0-|-0-0-2p0-------2p0-------2p0---

Bb|-3/7-7-7--7-7-7-7--7-7-7-7--7-7-7-7-|-3-3-------3---------3---------

Gb|-3/7-7-7--7-7-7-7--7-7-7-7--7-7-7-7-|-3-3-----3---3-----3---3-----3-

Db|-0/0-0-0--0-0-0-0--0-0-0-0--0-0-0-0-|-0-0---------------------------

Ab|-1/5-5-5--5-5-5-5--5-5-5-5--5-5-5-5-|-1-1---------------------------

Db|-0/0-0-0--0-0-0-0--0-0-0-0--0-0-0-0-|-0-0---------------------------

Db-|-0/0-0-0/0-0-0--0-0-0-0--0-0-0-0-|-0-0-2p0-------2p0-------2p0---|-

Bb-|-3/5-5-5/7-7-7--7-7-7-7--7-7-7-7-|-3-3-------3---------3---------|-

Gb-|-3/5-5-5/7-7-7--7-7-7-7--7-7-7-7-|-3-3-----3---3-----3---3-----3-|-

Db-|-0/0-0-0/0-0-0--0-0-0-0--0-0-0-0-|-0-0---------------------------|-

Ab-|-1/3-3-3/5-5-5--5-5-5-5--5-5-5-5-|-1-1---------------------------|-

Db-|-0/0-0-0/0-0-0--0-0-0-0--0-0-0-0-|-0-0---------------------------|-

Db|-0/0-0-0-0-0-2p0-------2p0-------2p0-----|-0-0-2p0-------2p0-------2p

Bb|-3/5-5-5-3-3-------3---------3---------3-|-3-3-------3---------3-----

Gb|-3/5-5-5-2-2-----2---2-----2---2-----2---|-3-3-----3---3-----3---3---

Db|-0/0-0-0-0-0-----------------------------|-0-0-----------------------

Ab|-1/3-3-3-0-0-----------------------------|-1-1-----------------------

Db|-0/0-0-0-0-0-----------------------------|-0-0-----------------------

Db|-0---0/0-0-0-|-0-0-2p0-------2p0-------2p0-----|-0-0-2p0-------2p0---

Bb|-----3/5-5-5-|-3-3-------3---------3---------3-|-3-3-------3---------

Gb|---3-3/5-5-5-|-2-2-----2---2-----2---2-----2---|-3-3-----3---3-----3-

Db|-----0/0-0-0-|-0-0-----------------------------|-0-0-----------------

Ab|-----1/3-3-3-|-0-0-----------------------------|-1-1-----------------

Db|-----0/0-0-0-|-0-0-----------------------------|-0-0-----------------

Db|-----2p0---0/0-0-|-0/0-0-0--0-0-0-0--0-0-0-0--0-0-0-0-|-0-0-0-0--0-0-

Bb|-3---------3/5-5-|-5/7-7-7--7-7-7-7--7-7-7-7--7-7-7-7-|-3-3-3-3--3-3-

Gb|---3-----3-3/5-5-|-5/7-7-7--7-7-7-7--7-7-7-7--7-7-7-7-|-3-3-3-3--3-3-

Db|-----------0/0-0-|-0/0-0-0--0-0-0-0--0-0-0-0--0-0-0-0-|-0-0-0-0--0-0-

Ab|-----------1/3-3-|-3/5-5-5--5-5-5-5--5-5-5-5--5-5-5-5-|-1-1-1-1--1-1-

Db|-----------0/0-0-|-0/0-0-0--0-0-0-0--0-0-0-0--0-0-0-0-|-0-0-0-0--0-0-

Db|-0-0--0-0-0-0--0-0-0/0-0-|-0/0-0-0--0-0-0-0--0-0-0-0--0-0-0-0-|-0-0-

Bb|-3-3--3-3-3-3--3-3-3/5-5-|-5/7-7-7--7-7-7-7--7-7-7-7--7-7-7-7-|-3-3-

Gb|-3-3--3-3-3-3--3-3-3/5-5-|-5/7-7-7--7-7-7-7--7-7-7-7--7-7-7-7-|-3-3-

Db|-0-0--0-0-0-0--0-0-0/0-0-|-0/0-0-0--0-0-0-0--0-0-0-0--0-0-0-0-|-0-0-

Ab|-1-1--1-1-1-1--1-1-1/3-3-|-3/5-5-5--5-5-5-5--5-5-5-5--5-5-5-5-|-1-1-

Db|-0-0--0-0-0-0--0-0-0/0-0-|-0/0-0-0--0-0-0-0--0-0-0-0--0-0-0-0-|-0-0-

Db|-0-0--0-0-0-0--0-0-0-0--0-0-0/0-0-|-0/0-0-0--0-0-0-0--0-0-0-0--0-0-0-

Bb|-3-3--3-3-3-3--3-3-3-3--3-3-3/5-5-|-5/7-7-7--7-7-7-7--7-7-7-7--7-7-7-

Gb|-3-3--3-3-3-3--3-3-3-3--3-3-3/5-5-|-5/7-7-7--7-7-7-7--7-7-7-7--7-7-7-

Db|-0-0--0-0-0-0--0-0-0-0--0-0-0/0-0-|-0/0-0-0--0-0-0-0--0-0-0-0--0-0-0-

Ab|-1-1--1-1-1-1--1-1-1-1--1-1-1/3-3-|-3/5-5-5--5-5-5-5--5-5-5-5--5-5-5-

Db|-0-0--0-0-0-0--0-0-0-0--0-0-0/0-0-|-0/0-0-0--0-0-0-0--0-0-0-0--0-0-0-

Db|-0-|-0-0-0-0--0-0-0-0--0-0-0-0--0-0-0/0-0-|-0-0-2p0-------2p0-------

Bb|-7-|-3-3-3-3--3-3-3-3--3-3-3-3--3-3-3/5-5-|-3-3-------3---------3---

Gb|-7-|-3-3-3-3--3-3-3-3--3-3-3-3--3-3-3/5-5-|-2-2-----2---2-----2---2-

Db|-0-|-0-0-0-0--0-0-0-0--0-0-0-0--0-0-0/0-0-|-0-0---------------------

Ab|-5-|-1-1-1-1--1-1-1-1--1-1-1-1--1-1-1/3-3-|-0-0---------------------

Db|-0-|-0-0-0-0--0-0-0-0--0-0-0-0--0-0-0/0-0-|-0-0---------------------

Db|-2p0-----|-0-0-2p0-------2p0-------2p0---0/0-0-|--------------------

Bb|-------3-|-3-3-------3---------3---------3/5-5-|--------------------

Gb|-----2---|-3-3-----3---3-----3---3-----3-3/5-5-|--------------------

Db|---------|-0-0---------------------------0/0-0-|-5/7-7-7-7-7-5-x-3--

Ab|---------|-1-1---------------------------1/3-3-|-3/5-5-5-5-5-5-x-3--

Db|---------|-0-0---------------------------0/0-0-|-----0---0-0-5-x-3--

Db|-----|------------------------|------------------------|-------------

Bb|-----|------------------------|------------------------|-------------

Gb|-----|------------------------|------------------------|-------------

Db|-0-0-|-5/7-7-7-7-7-5-x-3--0-0-|-5/7-7-7-7-7-5-x-3--0-0-|-5/7-7-7-7-7-

Ab|-0-0-|-3/5-5-5-5-5-5-x-3--0-0-|-3/5-5-5-5-5-5-x-3--0-0-|-3/5-5-5-5-5-

Db|-0-0-|-----0---0-0-5-x-3--0-0-|-----0---0-0-5-x-3--0-0-|-----0---0-0-

Db|------------|------------------------|------------------------|-----

Bb|------------|-5/7-7-7-7-7------------|-5/7-7-7-7-7------------|-5/7-

Gb|------------|-5/7-7-7-7-7------------|-5/7-7-7-7-7------------|-5/7-

Db|-5-x-3--0-0-|-0-7-0-0-0-0-5-x-3--0-0-|-0-7-0-0-0-0-5-x-3--0-0-|-0-7-

Ab|-5-x-3--0-0-|-3/5-5-5-5-5-5-x-3--0-0-|-3/5-5-5-5-5-5-x-3--0-0-|-3/5-

Db|-5-x-3--0-0-|-----0---0-0-5-x-3--0-0-|-----0---0-0-5-x-3--0-0-|-----

Db|--------------------|------------------------|-0-0-0-0--0-0-0-0--0-0-

Bb|-7-7-7-7------------|-5/7-7-7-7-7------------|-7-7-7-7--7-7-7-7--7-7-

Gb|-7-7-7-7------------|-5/7-7-7-7-7------------|-7-7-7-7--7-7-7-7--7-7-

Db|-0-0-0-0-5-x-3--0-0-|-0-7-0-0-0-0-5-x-3--0-0-|-0-0-0-0--0-0-0-0--0-0-

Ab|-5-5-5-5-5-x-3--0-0-|-3/5-5-5-5-5-5-x-3--0-0-|-5-5-5-5--5-5-5-5--5-5-

Db|-0---0-0-5-x-3--0-0-|-----0---0-0-5-x-3--0-0-|-0-0-0-0--0-0-0-0--0-0-

I kept my distance I look at you another way

Db|-0-0--0-0-0-0-|-0-0-0-0--0-0-0-0--0-0-0-0--0-0-0-0-|-0-0-0-0--0-0-0-

Bb|-7-7--7-7-7-7-|-7-7-5-7--7-7-7-7--7-7-5-7--7-7-7-7-|-7-7-7-7--7-7-7-

Gb|-7-7--7-7-7-7-|-7-7-5-7--7-7-7-7--7-7-5-7--7-7-7-7-|-7-7-7-7--7-7-7-

Db|-0-0--0-0-0-0-|-0-0-0-0--0-0-0-0--0-0-0-0--0-0-0-0-|-0-0-0-0--0-0-0-

Ab|-5-5--5-5-5-5-|-5-5-3-5--5-5-5-5--5-5-3-5--5-5-5-5-|-5-5-5-5--5-5-5-

Db|-0-0--0-0-0-0-|-0-0-0-0--0-0-0-0--0-0-0-0--0-0-0-0-|-0-0-0-0--0-0-0-

I left you stranded

Db|-0--0-0-0-0--0-0-0-0-|-0-0-0-0--0-0-0-0--0-0-0-0--0-0-0-0-|---------

Bb|-7--7-7-7-7--7-7-7-7-|-7-7-5-7--7-7-7-7--7-7-5-7--7-7-7-7-|---------

Gb|-7--7-7-7-7--7-7-7-7-|-7-7-5-7--7-7-7-7--7-7-5-7--7-7-7-7-|---------

Db|-0--0-0-0-0--0-0-0-0-|-0-0-0-0--0-0-0-0--0-0-0-0--0-0-0-0-|-5-5-5-5-

Ab|-5--5-5-5-5--5-5-5-5-|-5-5-3-5--5-5-5-5--5-5-3-5--5-5-5-5-|-5-5-5-5-

Db|-0--0-0-0-0--0-0-0-0-|-0-0-0-0--0-0-0-0--0-0-0-0--0-0-0-0-|-5-5-5-5-

Nobody even knows your name You keep on fighting. You keep on fighting

Db|-----------------------|------------------------|-------------------

Bb|-----------------------|------------------------|-------------------

Gb|-----------------------|------------------------|-------------------

Db|-5-5-5-5-5-5-5-x-3-x-5-|-5/7-7-7-7-7-5-x-3--0-0-|-5/7-7-7-7-7-5-x-3-

Ab|-5-5-5-5-5-5-5-x-3-x-5-|-3/5-5-5-5-5-5-x-3--0-0-|-3/5-5-5-5-5-5-x-3-

Db|-5-5-5-5-5-5-5-x-3-x-5-|-----0---0-0-5-x-3--0-0-|-----0---0-0-5-x-3-

Db|------|-------------------------------|------------------------|-----

Bb|------|-------------------------------|------------------------|-----

Gb|------|-------------------------------|------------------------|-----

Db|--0-0-|-5-5-5-5-5-5-5-5-5-5-5-x-3-x-5-|-5/7-7-7-7-7-5-x-3--0-0-|-5/7-

Ab|--0-0-|-5-5-5-5-5-5-5-5-5-5-5-x-3-x-5-|-3/5-5-5-5-5-5-x-3--0-0-|-3/5-

Db|--0-0-|-5-5-5-5-5-5-5-5-5-5-5-x-3-x-5-|-----0---0-0-5-x-3--0-0-|-----

You keep on fighting. You keep on fighting

Db|--------------------|------------------------|----------------------

Bb|--------------------|------------------------|----------------------

Gb|--------------------|------------------------|----------------------

Db|-7-7-7-7-5-x-3--0-0-|-5/7-7-7-7-7-5-x-3--0-0-|-5/7-7-7-7-7-5-x-3--0-

Ab|-5-5-5-5-5-x-3--0-0-|-3/5-5-5-5-5-5-x-3--0-0-|-3/5-5-5-5-5-5-x-3--0-

Db|-0---0-0-5-x-3--0-0-|-----0---0-0-5-x-3--0-0-|-----0---0-0-5-x-3--0-

Db|---|-0-0-0-0--0-0-0-0--0-0-0-0--0-0-0-0-|-0-0-0-0--0-0-0-0--0-0-0-0-

Bb|---|-7-7-7-7--7-7-7-7--7-7-7-7--7-7-7-7-|-7-7-5-7--7-7-7-7--7-7-5-7-

Gb|---|-7-7-7-7--7-7-7-7--7-7-7-7--7-7-7-7-|-7-7-5-7--7-7-7-7--7-7-5-7-

Db|-0-|-0-0-0-0--0-0-0-0--0-0-0-0--0-0-0-0-|-0-0-0-0--0-0-0-0--0-0-0-0-

Ab|-0-|-5-5-5-5--5-5-5-5--5-5-5-5--5-5-5-5-|-5-5-3-5--5-5-5-5--5-5-3-5-

Db|-0-|-0-0-0-0--0-0-0-0--0-0-0-0--0-0-0-0-|-0-0-0-0--0-0-0-0--0-0-0-0-

I kept my distance I look at you another way

Db|--0-0-0-0-|-0-0-0-0--0-0-0-0--0-0-0-0--0-0-0-0-|-0-0-0-0--0-0-0-0--0-

Bb|--7-7-7-7-|-7-7-7-7--7-7-7-7--7-7-7-7--7-7-7-7-|-7-7-5-7--7-7-7-7--7-

Gb|--7-7-7-7-|-7-7-7-7--7-7-7-7--7-7-7-7--7-7-7-7-|-7-7-5-7--7-7-7-7--7-

Db|--0-0-0-0-|-0-0-0-0--0-0-0-0--0-0-0-0--0-0-0-0-|-0-0-0-0--0-0-0-0--0-

Ab|--5-5-5-5-|-5-5-5-5--5-5-5-5--5-5-5-5--5-5-5-5-|-5-5-3-5--5-5-5-5--5-

Db|--0-0-0-0-|-0-0-0-0--0-0-0-0--0-0-0-0--0-0-0-0-|-0-0-0-0--0-0-0-0--0-

You're seething On the receiving end

Db|-0-0-0--0-0-0-0-|-------------------------------|-------------------

Bb|-7-5-7--7-7-7-7-|-------------------------------|-------------------

Gb|-7-5-7--7-7-7-7-|-------------------------------|-------------------

Db|-0-0-0--0-0-0-0-|-5-5-5-5-5-5-5-5-5-5-5-x-3-x-5-|-5/7-7-7-7-7-5-x-3-

Ab|-5-3-5--5-5-5-5-|-5-5-5-5-5-5-5-5-5-5-5-x-3-x-5-|-3/5-5-5-5-5-5-x-3-

Db|-0-0-0--0-0-0-0-|-5-5-5-5-5-5-5-5-5-5-5-x-3-x-5-|-----0---0-0-5-x-3-

You keep on fighting. You keep on fighting

Db|------|------------------------|-------------------------------|-----

Bb|------|------------------------|-------------------------------|-----

Gb|------|------------------------|-------------------------------|-----

Db|--0-0-|-5/7-7-7-7-7-5-x-3--0-0-|-5-5-5-5-5-5-5-5-5-5-5-x-3-x-5-|-5/7-

Ab|--0-0-|-3/5-5-5-5-5-5-x-3--0-0-|-5-5-5-5-5-5-5-5-5-5-5-x-3-x-5-|-3/5-

Db|--0-0-|-----0---0-0-5-x-3--0-0-|-5-5-5-5-5-5-5-5-5-5-5-x-3-x-5-|-----

You keep on fighting. You keep on fighting

Db|-------------|------------------------|---------------------------|-

Bb|-------------|------------------------|-5/7-7-7-7-7-7-7-7-7-7-7-7-|-

Gb|-------------|------------------------|-5/7-7-7-7-7-7-7-7-7-7-7-7-|-

Db|-7-7---------|-5/7-7-7--5p3---3p0-----|-0-7-0-0-0-0-0-0-0-0-0-0-0-|-

Ab|-5-5---------|-3/5-5-5------3-----3h5-|-3/5-5-5-5-5-5-5-5-5-5-5-5-|-

Db|-0-----------|-----0------------------|-----0---0-0-0-0-0-0-0-0-0-|-

Db|------------------|----------------------|----------------------|---

Bb|-7-7-7-7--7-7-7-7-|--------------------3-|--------------------3-|---

Gb|-7-7-7-7--7-7-7-7-|--------------------2-|--------------------2-|---

Db|-0-0-0-0--0-0-0-0-|-5/7-7-7-7-7-5-x-3--0-|-5/7-7-7-7-7-5-x-3--0-|-5/

Ab|-5-5-5-5--5-5-5-5-|-3/5-5-5-5-5-3-x-3--0-|-3/5-5-5-5-5-3-x-3--0-|-3/

Db|-0-0-0-0--0-0-0-0-|-----0---0-0---x-3--0-|-----0---0-0---x-3--0-|---

Fighting with my clay

Db|--------------------|----------------------|----------------------|-

Bb|------------------3-|--------------------3-|--------------------3-|-

Gb|------------------2-|--------------------2-|--------------------2-|-

Db|-7-7-7-7-7-5-x-3--0-|-5/7-7-7-7-7-5-x-3--0-|-5/7-7-7-7-7-5-x-3--0-|-

Ab|-5-5-5-5-5-3-x-3--0-|-3/5-5-5-5-5-3-x-3--0-|-3/5-5-5-5-5-3-x-3--0-|-

Db|---0---0-0---x-3--0-|-----0---0-0---x-3--0-|-----0---0-0---x-3--0-|-

Fighting with my clay

Db|----------------------|----------------------|----------------------

Bb|--------------------3-|--------------------3-|--------------------3-

Gb|--------------------2-|--------------------2-|--------------------2-

Db|-5/7-7-7-7-7-5-x-3--0-|-5/7-7-7-7-7-5-x-3--0-|-5/7-7-7-7-7-5-x-3--0-

Ab|-3/5-5-5-5-5-3-x-3--0-|-3/5-5-5-5-5-3-x-3--0-|-3/5-5-5-5-5-3-x-3--0-

Db|-----0---0-0---x-3--0-|-----0---0-0---x-3--0-|-----0---0-0---x-3--0-

Fighting with my clay

Db-|-

Bb-|-

Gb-|-

Db-|-

Ab-|-

Db-|-

Get this song at:  amazon.com sheetmusicplus.com

Share your thoughts

0 Comments found