Days of The New

Days of The New - Fighting With Clay guitar tab

===============================================================================

Fighthing With Clay

===============================================================================

Transcribed by: benig

Tabbed by: benig

email: benigdotn@yahoo.com.br

"Fighting With Clay" by Days of the New

Written by Travis Meeks

Tuning: Db-Ab-Db-Gb-Bb-Eb

Guit.I

P.M.

|....|

|----------------------------------------------------------------------------|

|----------------------------------------------------------------------------|

|-------5/7--7-7---------------5/7--7-7---------------5/7--7-7---------------|

|-------5/7--7-7---------------5/7--7-7---------------5/7--7-7---------------|

|-0-0---3/5--5-5---------------3/5--5-5---------------3/5--5-5---------------|

|-0-0-------------00-3/5-0-3-0-----------00-3/5-0-3-0------------0-3/5-0-3-0-|

Guit.I

|----------------------------------------------------------------------------|

|----------------------------------------------------------------------------|

|-5/7--7-7-------------------5/7--7-7---------------5/7--7-7-----------------|

|-5/7--7-7-------------------5/7--7-7---------------5/7--7-7-----------------|

|-3/5--5-5-------------------3/5--5-5---------------3/5--5-5-----------------|

|-----------00-3/5-0-3-0---------------00-3/5-0-3-0-----------00-3/5-0-3-0---|

|Guit.II

|----------------------------------------------------------------------------|

|----------------------------------------------------------------------------|

|----------------------------------------------------------------------------|

|---7--7------77---7-7-------------------------------------------------------|

|-/7--77----/7-7--7777-------------------------------------------------------|

|----------------------------------------------------------------------------|

Guit.I

|---------------------------------------------------|

|---------------------------------------------------|

|-5/7--7-7-------------------5/7--7-7---------------|

|-5/7--7-7--0-3/5-0-3-0------5/7--7-7--0-3/5-0-3-0--|

|-3/5--5-5--0-3/5-0-3-0------3/5--5-5--0-3/5-0-3-0--|

|-----------0-3/5-0-3-0----------------0-3/5-0-3-0--|

|Guit.II

|---------------------------------------------------|

|---------------------------------------------------|

|---7-7-/77----77------------7-7--------------------|

|-/77-7-/7--7--77------------7777----------7b7b7b7b-|

|---------------------------------------------------|

|---------------------------------------------------|

Guit.I

|-------------------------------------------------------------------------------------|

|-------------------------------------------------------------------------------------|

|-------------------------------------------------------------------------------------|

|-----------------7-----------------5/7-7---7---5/7----------5/7-7---7---5/7----------|

|-3/7--3-5-3--3-5-5---3-5-3-5-------3/5---5-5---3/5-5-3------3/5---5-5---3/5-5-3------|

|-------------------------------------------------------3-0----------------------3-0--|

Guit.I

|-------------------------------------------------------------------------------------|

|-------------------------------------------------------------------------------------|

|-------------------------------------------------------------------------------------|

|-----------------7-----------------5/7-7---7---5/7----------5/7-7---7---5/7-7-5-3-0--|

|-3/7--3-5-3--3-5-5---3-5-3-5-------3/5---5-5---3/5-5-3------3/5---5-5---3/5-5-3-3-0--|

|-------------------------------------------------------3-0----------------------3-0--|

Guit.I

|-----------------------------------------------------------------------------------------|

|-----------------------------------------------------------------------------------------|

|-----------------------------------------------5/7--7-7----------7--5/7--7-7-------------|

|-5-5-5-5-5-5-5-5-5-5-5-5-5-5----------3--------5/7--7-7---5/7--7-7--5/7--7-7-------------|

|-5-5-5-5-5-5-5-5-5-5-5-5-5-5----3-4-5----5-4-3-3/5--5-5---3/5--5-5--3/5--5-5-------------|

|-5-5-5-5-5-5-5-5-5-5-5-5-5-5-------------------------------------------------0-3/5-5-3-0-|

|Guit.II PM PM

|-----------------------------------------------------------------------------------------|

|-----------------------------------------------------------------------------------------|

|-----------------------------------------------------------------------------------------|

|-5-5-5-5-5-5-5-5-5-5-5-5-5-5----5--------7-----------------------------------------------|

|-5-5-5-5-5-5-5-5-5-5-5-5-5-5-00-3-----00-5-----------------------------------------------|

|-5-5-5-5-5-5-5-5-5-5-5-5-5-5-00-------00-------------------------------------0-3/5-5-3-0-|

Guit.I

|-------------------------------------------------------------------------------------|

|-------------------------------------------------------------------------------------|

|-------------------------------------------------------------------------------------|

|-5-5-5-5-5-5-5-5-5-5-5-5-5-5--5b5b-3-3b-3-5b-----------------------------------------|

|-5-5-5-5-5-5-5-5-5-5-5-5-5-5---------------------------------------------------------|

|-5-5-5-5-5-5-5-5-5-5-5-5-5-5---------------------------------------------------------|

|Guit.II PM PM

|-------------------------------------------------------------------------------------------|

|-------------------------------------------------------------------------------------------|

|-----------------------------------------------5/7--7-7--------------5/7--7-7--------------|

|-5-5-5-5-5-5-5-5-5-5-5-5-5-5----5--------7-----5/7--7-7--------------5/7--7-7--------------|

|-5-5-5-5-5-5-5-5-5-5-5-5-5-5-00-3-----00-5-----3/5--5-5--------------3/5--5-5--------------|

|-5-5-5-5-5-5-5-5-5-5-5-5-5-5-00-------00----------------00-3/5-0-3-0----------00-3/5-0-3-0-|

Guit.I

|-----------------------------------------------|

|-----------------------------------------------|

|-5/7--7-7----------------5/7--7-7--------------|

|-5/7--7-7----------------5/7--7-7--------------|

|-3/5--5-5----------------3/5--5-5--------------|

|-----------00-3/5-0-3-0------------------------|

|Guit.II

|-----------------------------------------------|

|-----------------------------------------------|

|-5/7--7-7---------------5/7--7-7---------------|

|-5/7--7-7---------------5/7--7-7---------------|

|-3/5--5-5---------------3/5--5-5---------------|

|-----------00-3/5-0-3-0-----------00-3/5-0-3-0-|

Guit.I(01:23)

|------------------------------------------------------|

|------------------------------------------------------|

|------------------------------------------------------|

|-5/7-7---5-7-5---5---7-5---5-7-5---7----7----77---7---|

|-3/5---5-------5---5-----5-----------5----5-----5---5-|

|------------------------------------------------------|

Guit.I(01:35)

|------------------------------------------------------|

|------------------------------------------------------|

|------------------------------------------------------|

|-5/7--7-7--7---5/7--7-7--5-7--5/7--7-7--7-0-5/7-7-5-0-|

|-3/5--5-5--5---3/5--5-5--3-5--3/5--5-5--5-0-3/5-5-3-0-|

|------------------------------------------------------|

Guit.I

|--------------------------------------------------------------------------------------|

|--------------------------------------------------------------------------------------|

|--------------------------------------------5/7--7-7----------7--5/7--7-7-------------|

|-5-5-5-5-5-5-5-5-5-5-5-5-5-5--------3-------5/7--7-7---5/7--7-7--5/7--7-7-0-3/5-5-3-0-|

|-5-5-5-5-5-5-5-5-5-5-5-5-5-5--3-4-5---5-4-3-3/5--5-5---3/5--5-5--3/5--5-5-0-3/5-5-3-0-|

|-5-5-5-5-5-5-5-5-5-5-5-5-5-5----------------------------------------------0-3/5-5-3-0-|

|Guit.II

|--------------------------------------------------------------------------------------|

|--------------------------------------------------------------------------------------|

|--------------------------------------------------------------------------------------|

|-5-5-5-5-5-5-5-5-5-5-5-5-5-5----------------------------------------------------------|

|-5-5-5-5-5-5-5-5-5-5-5-5-5-5----------------------------------------------------------|

|-5-5-5-5-5-5-5-5-5-5-5-5-5-5----------------------------------------------------------|

Guit.I

|-------------------------------------------------------------------------------------|

|-------------------------------------------------------------------------------------|

|-------------------------------------------------------------------------------------|

|-5-5-5-5-5-5-5-5-5-5-5-5-5-5--5p3-3h5p3-5b-3b----------------------------------------|

|-5-5-5-5-5-5-5-5-5-5-5-5-5-5---------------------------------------------------------|

|-5-5-5-5-5-5-5-5-5-5-5-5-5-5---------------------------------------------------------|

|Guit.II

|-------------------------------------------------------------------------------------|

|-------------------------------------------------------------------------------------|

|-------------------------------------------------------------------------------------|

|-5-5-5-5-5-5-5-5-5-5-5-5-5-5---------------------------------------------------------|

|-5-5-5-5-5-5-5-5-5-5-5-5-5-5---------------------------------------------------------|

|-5-5-5-5-5-5-5-5-5-5-5-5-5-5---------------------------------------------------------|

Guit.I

|----------------------------------------------------------------------------|

|----------------------------------------------------------------------------|

|-5/7--7-7---------------5/7--7-7---------------5/7--7-7---------------------|

|-5/7--7-7--0-3/5-0-3-0--5/7--7-7--0-3/5-0-3-0--5/7--7-7--0-3/5-0-3-0--------| x10

|-3/5--5-5--0-3/5-0-3-0--3/5--5-5--0-3/5-0-3-0--3/5--5-5--0-3/5-0-3-0--------|

|-----------0-3/5-0-3-0------------0-3/5-0-3-0------------0-3/5-0-3-0--------|

Guit.I

|------------------------------------------------|

|------------------------------------------------| |

|-5/7--7-7---------------5/7--7-7----------------| |

|-5/7--7-7--0-3/5-0-3-0--5/7--7-7--0-3/5-0-3-0---| |

|-3/5--5-5--0-3/5-0-3-0--3/5--5-5--0-3/5-0-3-0---| |

|-----------0-3/5-0-3-0------------0-3/5-0-3-0---| |

|Guit.II | x2

|------------------------------------------------| |

|------------------------------------------------| |

|------------------------------------------------| |

|------------------------------------------------| |

|-----------------3----------------------3-------| |

|-----------3-4-5---5-4-3----------3-4-5---5-4-3-|/

Get this song at:  amazon.com sheetmusicplus.com

Share your thoughts

0 Comments found