Days of The New

Days of The New - Face Of The Earth guitar tab

*-*-*-*-*-*-*-*-*-*-*-*-*-*-*-*-*-*-*-*-*-*-*-*-*-*-*-*-*-*-*-*-*-*-*-*-*

FACE OF THE EARTH

*-*-*-*-*-*-*-*-*-*-*-*-*-*-*-*-*-*-*-*-*-*-*-*-*-*-*-*-*-*-*-*-*-*-*-*-*

Song: Face of the Earth

Band: Days of The New

Album: Days of the New (1997)

Tabbed by: Toby Biggs (tbiggs@rockyview.ab.ca)

Double dropped D tuning and tuned down half a step

Db-ab-db-gb-bb-db

I'll give you the basic elements of the song and let

you figure out the order, it's not too tough once you

learn these

d---X--X--X--0---|--------------------------------|

b---0--0--0--3---|------3-1h3----1---1-1-----1----|

g---0--0--0--2---|------2-0h2----0---0---0---0----|

d---0--0--0--0---|------------------------------0-|

a---0--0--0--0---|----0------------3-------3------|

D---0--0--0--0---|--0----------0------------------|

d-------------------------|-----------------------|

b-----3-1h3---1---1-1--1--|---3-1h3--1--1-1---1---|

g-----2-0h2---0---0--0-0--|---2-0h2--0--0--2--0---|

d-----------------------0-|---------------------0-|

a---0------------3----3---|--0---------3-----3----|

D-0---------0-------------|-0------0--------------|

d---------------------------|

b----3-1h3---1---1-1----1---|

g----2-0h2---0---0--0---0---|

d-------------------------0-| repeat this (minus beginning)

a--0-----------3-----3/5----|

D-0--------0----------------|

Then...

/ d-------------------------|----------------------------|

| b-------------------------|----------------------------|

| g-------------------------|-------------------------1--|

| d---0-0---0-0---0-0---0-0-|--0-0---0-0---0-0---0------3|

| a--0-0-0-0-0-0-0-0-0-0-0-0|-0-0-0-0-0-0-0-0-0-0--------|

| D-0-----3-----5-----5-----|0-----3------5-----5--------|

|

| d-------------------------|----------------------------|

| b-------------------------|----------------------------|

| g-------------------------|---------------------1------|

| d-------------------------|--00-00-00-00-00-00-0-3-----|

| a-------------------------|-0--0--0--0--0--0--0--------|

D------------------------5|0---------------------------|

crescendo

and increase tone

The majority of the song is basicly like this

/ d------------------------------| |------|

| b------------------------------| |------|

| g------------------------------| |---1--|

| d---0-0----0-0----0-0----0-0---| |----3-|

| a--0-0-0--0-0-0--0-0-0--0-0-0--|sometimes |--0---|

| D-0------0------0------0-------| |-0----|

|

| d------------------------------|

| b-----1h3---1h3---1h3---1h3----|

| g-----0h2---0h2---0h2---0h2----|

| d------------------------------|

| a------------------------------|

D------------------------------|

Then at the end they go

d--------------------------------|

b--------------------------------|

g--------------------------------|

d--0---0-0-12--0-0-12-0-0-10-0-0-|repeat a few times then

a--0---0-0-12--0-0-12-0-0-10-0-0-|

D--0---0-0-12--0-0-12-0-0-10-0-0-|

d---------------|

b---------------|

g---------------|

d--11-0-0-8-0-0-|

a--11-0-0-8-0-0-|

D--11-0-0-8-0-0-|

and back to the beginning and your done.

LYRICS

I'm the one receiving the pain from you

You would make these lies

I would take them true

Your're self existing

No chance of listening

Close your eyes and I will help you pray

Listen to God and tell me what he said

and what he says

I'm the one receiving the pain from you

Break me down so shove me in a shoe

You put it on and walk on me all day

Me it wouldn't surprise

It's something you would do

I watch you

I am the ground and the dirt

walk on me

Face of the earth

____________________________________________________________________

/

| |

| Alex's Tabs Page - http://www.geocities.com/NashVille/6555 |

| |

____________________________________________________________________/

Get this song at:  amazon.com sheetmusicplus.com

Share your thoughts

0 Comments found