Days of The New

Days of The New - Enemy2 guitar tab

#-----------------------------PLEASE NOTE-------------------------------------#

#This OLGA file is the author's own work and represents their interpretation #

#of the song. You may only use this file for private study, scholarship, or #

#research. Remember to view this file in Courier, or some other monospaced #

#font. See http://www.olga.net/faq/ for more information. #

#-----------------------------------------------------------------------------#

Subject: d/days_of_the_new/enemy.tab

ENEMY

As recorded by Days of The

New

(From the 2000 Album DAYS OF THE

NEW)

Words and Music by Travis Meeks

Arranged by Travis Meeks

Transcribed by m2Fu icq:75102685

email:doodie_au@yahoo.com

Gtr I

|---------0---------|-----|-^0-------------|-^12-------------|-^0--------------|

|-0h2-2S4---2p0-----|-----|-^0-0---------2-|-^12-12----------|-^0-0---------2--|

|-0-------------0---|-----|-^0---0-------0-|-^12----12-------|-^0---0-------0--|

|-0-----------------|-----|-^0-----0-----0-|-^12-------12----|-^0-----0-----0--|

|-0---------------0-|-(0)-|-^0-------0---5-|-^12----------12-|-^0-------0---5--|

|-------------------|-----|------------0---|-----------------|------------0----|

|-------------0---------|-----|-----^12----------|

|-(2)-0h2-2S4---2p0-----|-----|-----^12-12-------|

|-(0)-0-------------0---|-----|-----^12----12----|

|-(0)-0-----------------|-----|-----^12-------12-|

|-(5)-0---------------0-|-(0)-|-(0)-^12----------|

|-----------------------|-----|------------------|

|--------|------------0----------|

|------2-|-(2)-^2-2S4---2p0------|

|------0-|-(0)-^0-----------0----|

|------0-|-(0)-^0----------------|

|-12---5-|-(5)-^5----------------|

|----0---|-----------------------|

|-------------------|-------------------|

|-------------------|-------------------|

|-----------------0-|-----------------0-|

|---------0-----0---|---------0-----0---|

|----5------5S6-----|----0------5S6-----|

|-0----0------------|-0----0------------|

|---------------------||----------------|

|---------------------||o---------------|

|-------------------0-||----------------| just play variations on this

|-----------0-----0---||----0---0-----0-|

|----3S5------5S6-----||o---------5-6---|

|-0------0------------||--0---0---------|

|----------------||---------------------------|--------------------------|

|---------------o||---------------------------|--------------------------|

|-0--------------||---------------------------|---0----------------------|

|----------------||-------0-----0-------0-----|-----------0-------0------|

|---0-----0---0-o||-----0-----0---------------|-0-------0----------------|

|-----2-5---5----||-5h7-----2-----5-7-5---5h7-|-----0-2-----5-7-5---5-7--|

|---------------------0-|-(0)----|-(0)--------------------|

|-------------------0-2-|-(2)----|-(2)-2h4-4-4-2p0-0-0----|

|---0---------------0-0-|-(0)----|-(0)-0---0-0-0---0-0----|

|-----------0---------0-|-(0)----|-(0)--------------------|

|-0-------0-----------5-|-(5)----|-(5)--------------------|

|-----0-2-----5-7-5---0-|-(0)----|-(0)--------------------|

here is the chorus \/ pretty simple but pretty cool

||--5S7-7-7-7-7-7-5-7-5-5-7-|-(7)-7-7-7-7-7-7-7-7-7-5-5-0-|-0-0-0-0-0-0--|

||o-0-0-0-0-0-0-0-0-0-0-0-0-|-(0)-0-0-0-0-0-0-0-0-0-0-0-2-|-2-2-2-2-2-2--|

||--0-0-0-0-0-0-0-0-0-0-0-0-|-(0)-0-0-0-0-0-0-0-0-0-0-0-0-|-0-0-0-0-0-0--|

||--5S7-7-7-7-7-7-5-7-5-5-7-|-(7)-7-7-7-7-7-7-7-5-7-5-5-0-|-0-0-0-0-0-0--|

||o-------------------------|---------------------------5-|-5-5-5-5-5-3--|

||--5S7-7-7-7-7-7-5-7-5-5-7-|-(7)-7-7-7-7-7-7-7-5-7-5-5---|--------------|

|-0-0-0-0-0-|-(0)-0-0-0-0-0------------------||----|

|-2-2-0-0-2-|-(2)-2-2-2-2-2-2h4-4-4-2p0-0-0-o||----|

|-0-0-0-0-0-|-(0)-0-0-0-0-0-0---0-0-0---0-0--||----|

|-0-0-0-0-0-|-(0)-0-0-0-0-0------------------||----|

|-3-5-3-3-5-|-(5)-5-5-5-5-5-----------------o||----|

|-----------|--------------------------------||----|

until the outro just muck around with the above rythm

and then

outro/guitar solo is HERE!

i finally got off my ass and finished it! 23/7/01

outro

|---------5-----3-|-(3)-----------------|---------8-------|

|-0-----------0---|-----0--h0-2---0-----|-----0-----0---0-|

|-----2-----0-----|-------0-----0---0---|-------0-----0---|

|---0---0---------|-------------------0-|-----------------|

|-0-------0-----3-|-(3)-----------------|---5-----------3-|

|-----------------|---------------------|-0-------------3-|

|---------3-0----------|

|-(0)---0----p2-0--p1-0|

|-----0----------------|

|----------------------|

|-(3)------------------|

|-(3)-------2----------|

|---------------------------|-----------|-------------|

|---------------------------|-----------|-------------|

|---------------------------|---------3-|-----5-5\-6--|

|-----------------3-5-0h3-5-|-(5)---x---|---5---------|

|-----3p5-3-0h3-5-----------|------x----|-------------|

|h5-7-----------------------|-----------|-------------|

~

|--------------------|--10pb11r10-p10-8-------|--------------|---------------|

|--------------------|------------------9--7\-|-9\-7-(7)-----|---------------|

|--5--3--------------|------------------------|------------8-|-(8)---------7-|

|-------5--3-5-(5)-3-|------------------------|----------8---|-----8-(8)-7---|

|--------------------|------------------------|--------------|---------------|

|--------------------|------------------------|--------------|---------------|

|---------------------|----------------------------------------|

|---------------------|----------------------------------------|

|-10-12-(12)-5\-6-----|------0p3-0-------0p3-0------h0p3-0---0-|

|---------------------|------------0---0-------0---0-------0---|

|----12-(12)-5\-6-5-3-|-5\-7---------5-----------5-------------|

|---------------------|----------------------------------------|

|------------------------------|---------------------------------|

|--------------------------4-7-|-7b9--5-4p5-4---4----------------|

|-5-6-5-3---5-6-5-3----5-6-----|--------------6---6-5-3-5\-6\-5--|

|---------5---------5----------|---------------------------------|

|------------------------------|---------------------------------|

|------------------------------|---------------------------------|

|--------------------------------|--12-15-15b17--12-15-|

|-----------------------------9--|---------------------|

|-3---3-------------------0-7----|---------------------|

|---5---5-3-5-3------------------|---------------------|

|---------------5-3-5-3-0--------|---------------------|

|--------------------------------|---------------------|

|-15b17r15-15-12---------------------|

|----------------14-12-14b16---------|

|---------------------------------3--|

|-------------------------------5----|

|-----------------------------6------|

|------------------------------------|

|----------------|----------------|-----|-5-7-8-7-8-10-|-[12]-|

|----------------|-9-7------7-5-4-|-----|-5-----7------|-[12]-|

|-3-5-(5)-3-5\-7-|-8-7-5\-7-7-5-3-|-----|-5-----7------|-[12]-|

|----------------|----------------|-[7]-|-5-----7------|-[12]-|

|----------------|----------------|-[7]-|--------------|------|

|----------------|----------------|-----|--------------|------|

|-5-7-8-7-8-10-|-------|

|-5-----7------|-------|

|-5-----7------|-[12]--|

|-5-----7------|-[12]--|

|--------------|-------|

|--------------|-------|

|-5-7-8-7-8-10-|--------------------------------------|

|-5-----7------|--------------------------------------|

|-5-----7------|--17-18-17-16----17-18-17-16----------|

|-5-----7------|--------------17-------------17-15-17-|

|--------------|--------------------------------------|

|--------------|--------------------------------------|

|-----------------------------------------|

|-----------------------------------------|

|-17-18-17-15----17-18-17-15----15--------|

|-------------17-------------17----17-15--|

|-----------------------------------------|

|-----------------------------------------|

|-------------------------------------|----17----15----13----12-|

|-------------------------------------|-------------------------|

|----17-18-17-15----17-18-17-15----15-|-15----14----12----10----|

|-17-------------17-------------17----|-------------------------|

|-------------------------------------|-------------------------|

|-------------------------------------|-------------------------|

|------------------------------------|

|------------------------------------|

|--17-18-17-15----17-18-17-15----15--|

|--------------17-------------17-----|

|------------------------------------|

|------------------------------------|

|-------------------------------------|---------------|

|-------------------------------------|---------------|

|-17-18-17-15----15----------15-------|---------------|

|-------------17----17-15-17----17-15-|-17-15-16-17---|End with a smile (:

|-------------------------------------|---------------|

|-------------------------------------|---------------|

+note..i used a tab program which stuffed up the tab

symbols like hammer ons and pull offs in the outro and

solo..so just go with the feel of the song and use the

actual notes as a reference not as the 100 % accurate

representation of the song that it looks (:

also--i have the correct tunings for all the other

songs of this album if anyone else wants to have a go

at transcribing some other songs, icq or email me if

you want them.

Get this song at:  amazon.com sheetmusicplus.com

Share your thoughts

0 Comments found