Days of The New

Days of The New - Enemy Bass guitar tab

-------------------------------------------------------------------------------

ENEMY - DAYS OF THE NEW

-------------------------------------------------------------------------------

Tabbed By : James Ryan

e-mail: webmaster at tabs-database.com.com

Tuning: Standard

VERSE

G|----------------------|

D|----------------------|

A|----------------------|

E|--2------0--2--0--2---|

B|-----2----------------|

CHORUS

G|---------------------------------------|

D|---------------------------------------|

A|---------------------------------------|

E|--7--7--7--7--7--7--7--7--7--7--7--7---|

B|---------------------------------------|

BRIDGE

G|---------------------------------------|

D|---------------------------------------|

A|---------------------------------------|

E|----------5-5-5-5--2-2-2-2-------------|

B|-5-5-5-5--------------------3-3-3-3----|

THAT'S ALL

Added by tabs-database.com and our distinguished partners

Get this song at:  amazon.com sheetmusicplus.com

Share your thoughts

0 Comments found