Days of The New

Days of The New - Days In Our Life guitar tab

===============================================================================

Days In Our Life

===============================================================================

Transcribed by: benig

Tabbed by: benig

email: benigdotn@yahoo.com.br

"Days In Our Life" by Days of the New

Written by Travis Meeks

Tuning: Eb-Ab-Db-F-Ab-Db

|--------------------------------------------------0--------0---------0-----------|

|------------------0------0-------------------0--0--0-----0---0-----0---0-----3p0-|

|----------------3------3--------------------3---3------3---------3---------0-----|

|-----0-4-040--0-------------------0-4-040-0-----0--------------0-----------------|

|-5/9------------------------5/9-----------------0--------------------------------|

|--------------------3---------------------------3----3---------------------------|

|------------------------------------------------------------------------0---------0---------0----------|

|------------------0-----0------------------0-----0------------------0-0---0-----0---0-----0---0----3p0-|

|----------------3-----3------------------3-----3------------------3---3-------3---------3--------0-----|

|-04-04-0-4-0--0-----------04-04-0-4-0--0-----------04-04-0-4-0--0-----0---------------0----------------|

|----------------------------------------------------------------------0--------------------------------|

|--------------------3------------------------3------------------------3-----3--------------------------|

Get this song at:  amazon.com sheetmusicplus.com

Share your thoughts

0 Comments found