Days of The New

Days of The New - Dancing In The Wind guitar tab

Author/Artist: Days Of The New

Title: Dancing In The Wind

Album: Red

Transcribed by: Keith Nida

Email: KeithNida84@yahoo.com

Dropped D Tuning Down A Half Step

-|----------------------------------------------------------------------------

-|--10--10--8--10--8--10--11--11--11--11--11--10--10--10--6--6--6--8--8--8----

-|----------------------------------------------------------------------------

-|----------------------------------------------------------------------------

-|----------------------------------------------------------------------------

-|----------------------------------------------------------------------------

Horn Section

------------------------------------------------------------------------------

--5--5--5---------------------------------------------------------------------

------------------------------------------------------------------------------

------------------------------------------------------------------------------

------------------------------------------------------------------------------

------------------------------------------------------------------------------

This part is also the verse

-|----------------------------------------------------------------------------

-|--3--5--6--1----------------------------------------------------------------

-|--------------3-------------2-----------------------------------------------

-|----------------------------------------------------------------------------

-|----------------------------------------------------------------------------

-|----------------------------------------------------------------------------

Do you hear them sing? Theres a soul waiting for you to die

-|----------------------------------------------------------------------------

-|----------------------------------------------------------------------------

-|----------------------------------------------------------------------------

-|----------------------------------------------------------------------------

-|--5-------------------------------------------------------------------------

-|-----0----------------------------------------------------------------------

The chanting part for the horns

-|----------------------------------------------------------------------------

-|--5--3----------------------------------------------------------------------

-|----------------------------------------------------------------------------

-|----------------------------------------------------------------------------

-|----------------------------------------------------------------------------

-|--------------------------------------------0--5----------------------------

yeah your dancing in the wind WOW!!!!

-|----------------------------------------------------------------------------

-|----------------------------------------------------------------------------

-|----------------------------------------------------------------------------

-|----------------------------------------------------------------------------

-|------------------2--3------------------------------------------------------

-|--0--5-6-5--0--3------------------------------------------------------------

Heavy Part

-|----------------------------------------------------------------------------

-|--------5-----------3-------------------------------------------------------

-|------7---7-------5---5-----------------------------------------------------

-|----7-------7---5-------5---------------------------------------------------

-|--5-----------3-----------3-------------------------------------------------

-|----------------------------5-5--5------------------------------------------

I've seen the road. It's getting longer.... Dont know the solo

-|----------------------------------------------------------------------------

-|----------------------------------------------------------------------------

-|----------------------------------------------------------------------------

-|--8--8--7-------------------------------------------------------------------

-|--8--8--7-------------------------------------------------------------------

-|--8--8--7-------------------------------------------------------------------

You will kill think again

-|----------------------------------------------------------------------------

-|----------------------------------------------------------------------------

-|----------------------------------------------------------------------------

-|----------------------------------------------------------------------------

-|-----------3---0---------3---0---------3---0--3---0--3---0------------------

-|--0--5--7----5---0--5--7---5---0--5--7---5------5------5--------------------

You will kill yourself

Get this song at:  amazon.com sheetmusicplus.com

Share your thoughts

0 Comments found