Days of The New

Days of The New - Champagne guitar tab

Author/Artist: Days Of The New

Title: Champagne

Album: Red Promo Cd

Transcribed by: Keith Nida

Email: KeithNida84@yahoo.com

This is my first tab. It might not be right but I

really dont care what you thi

nk. Im doin my best.

-|----------------------------------------------------------------------------

-|----------------------------------------------------------------------------

-|----------------------------------------------------------------------------

-|--5--5--0--5--5--5--0--5--------3--5----------------------------------------

-|--5--5--0--5--5--5--0--5--3--5----------------------------------------------

-|--5--5--0--5--5--5--0--5----------------------------------------------------

Yeah Repeat this for the verse

-|----------------------------------------------------------------------------

-|-----------------------------------------3----------------------------------

-|-----------------------------------------2----------------------------------

-|--5--5--0--5--5--5--0--5--5--5--0--5--5--0----------------------------------

-|--5--5--0--5--5--5--0--5--5--5--0--5--5--0----------------------------------

-|--5--5--0--5--5--5--0--5--5--5--0--5--5--0----------------------------------

I wanna know. How it goes.

-|----------------------------------------------------------------------------

-|----------------------------------------------------------------------------

-|----------------------------------------------------------------------------

-|--8--3--5--3----------------------------------------------------------------

-|--8--3--5--3----------------------------------------------------------------

-|--8--3--5--3----------------------------------------------------------------

That's why we'll take it away Strum these chords.

I dont know the solo.

-|----------------------------------------------------------------------------

-|--3-------------------------------------------------------------------------

-|--2--9----------------------------------------------------------------------

-|--0--9--3-----5--3--5-------------------------------------------------------

-|--0--7--3-----5--3--5-------------------------------------------------------

-|--0-----3-----5--3--5-------------------------------------------------------

Just when you think it ends.

Get this song at:  amazon.com sheetmusicplus.com

Share your thoughts

0 Comments found