Days of The New

Days of The New - Bring Me Down guitar tab

tune down top string 1 whole note to D

E--------------------------------------------------------------------------|

B-------------------------------------------------------------- 3-----1----|

G-------0---------------0---------------------2--0----------------2--------|

D----------0--------------0----------------0-------0--------0-------0----0-|

A----------------------------------------0---------------0-----------------|

d---5--------5---3/5----------5--3----1----------------0-------------------|

(3 times)

E------------------------------------------------------0---0-------------|

B------------------------------------------------------3---3-------------|

G------0-----------------0-------------------2--0------2---2-------------|

D--------0-----------------0--------------0-------0----0---0-------------|

A---------------------------------------0--------------------------------|

D---5---------5----3/5--------5--3----1----------------------------------|

tabbed by michael wells

Get this song at:  amazon.com sheetmusicplus.com

Share your thoughts

0 Comments found