Days of The New

Days of The New - Best Of Life guitar tab

===============================================================================

Best of Life

===============================================================================

Transcribed by: benig

Tabbed by: benig

email: benigdotn@yahoo.com.br

"Best of Life" by Days of the New

Written by Travis Meeks

Tuning: Db-Ab-Db-Gb-Bb-Db

Guit.I

|----------------------------------------------------------------------|

|----------------------------------------------------------------------|

|-7--7--5/7--5/7--5----7--7--5/7--5/7---5----7--7--3/5------------7--7-|

|-7--7--5/7--5/7--5----7--7--5/7--5/7---5----7--7--3/5--0-5b-0----7--7-|

|-5--5--3/5--3/5--3----5--5--3/5--3/5---3----5--5--3/5------------5--5-|

|----------------------------------------------------------------------|

|Guit.II

|----------------------------------------------------------------------|

|----------------------------------------------------------------------|

|-7--7-----------------7--7------------------7--7-----------------7--7-|

|-7--7-----------------7--7------------------7--7-----------------7--7-|

|-5--5-----------------5--5------------------5--5-----------------5--5-|

|--------------------------------------2/12b---------------------------|

Guit.I

|----------------------------------------------------------------------------------------|

|----------------------------------------------------------------------------------------|

|-7--7--5/7--5/7--5----7--7--5/7--5/7---5----7--7--5/7--5/7--5----7--7--5/7--------------|

|-7--7--5/7--5/7--5----7--7--5/7--5/7---5----7--7--5/7--5/7--5----7--7--5/7--------------|

|-5--5--3/5--3/5--3----5--5--3/5--3/5---3----5--5--3/5--3/5--3----5--5--3/5--------------|

|----------------------------------------------------------------------------------------|

|Guit.II

|----------------------------------------------------------------------------------------|

|----------------------------------------------------------------------------------------|

|-7--7--5/7--5/7--5----7--7--5/7--5/7---5----7--7--5/7--5/7--5----7--7--5/7--------------|

|-7--7--5/7--5/7--5----7--7--5/7--5/7---5----7--7--5/7--5/7--5----7--7--5/7--3p0---------|

|-5--5--3/5--3/5--3----5--5--3/5--3/5---3----5--5--3/5--3/5--3----5--5--3/5------5p0-3p0-|

|----------------------------------------------------------------------------------------|

Guit.I & Guit.II

|----------------------------------------------------------------------------------------|

|-3--3---------------3--3---------------3--3---------------3--3--------------------------|

|-2--2---------------2--2---------------2--2---------------2--2--------------------------|

|-0--0---0-3-0-3-0---0--0---0-3-0-3-0---0--0---0-3-0-3-0---0--0---0-3--------------------|

|-0--0---0-3-0-3-0---0--0---0-3-0-3-0---0--0---0-3-0-3-0---0--0---0-3--------------------|

|--------0-3-0-3-0----------0-3-0-3-0----------0-3-0-3-0----------0-3--------------------|

Chorus

Guit.I & Guit.II

|------0--0----------|

|------0--0----------|

|------4--6----------|

|------5--7----------|

|------5--7----------|

|------5--7----------|

Get this song at:  amazon.com sheetmusicplus.com

Share your thoughts

0 Comments found