Darkest Hour

Darkest Hour - A Blessing In Tragedy guitar tab

darkest hour

a blessing in tragedy

tune to DROPPED c

|------------------------------------------------------------------|

|------------------------------------------------------------------|

|------------------------------------------------------------------|

|------------------------------------------------------------------|

|-0---8---8p7---------8----8---8p7--------8---8p7------10------8---|

|-0-0---0-----0-10-00---00---0-----0-8-00---0-----0-10----10-8---8-|

. . . .. .. . . .. . .

little lick at the end:

|--------------------|

|--------------------|

|---------------10~--|

|-8-7-5--------------|

|-------7-8h10-------|

|--------------------|

|-----------------------------------------------------------|

|-----------------------------------------------------------|

|-----------------------------------------------------------|

|-----------------------------------------------------------|

|-0---10---10p12----8---8---8h10-0---10---10p12-----8----12-|

|-0-0----0-------00---8---8------0-0----0-------0-8---10----|

. . .. . . . . .

chorus:

|-----------------------------------------------------------------------------------|

|-----------------------------------------------------------------------------------|

|-----------------------------------------------------------------------------------|

|-----------------------------------------------------------------------------------|

|-000-5555-7777-888-333-5555-7777-888-555-7777-8888-1010-8---10-10p8-10----12-12p10-|

|-000---------------333---------------555----------------8-8---------10-10----------|

. .

the harmony part is just

|--------------------------------------------------------------------------------|

|--------------------------------------------------------------------------------|

|--------------------------------------------------------------------------------|

|-----3333-5555-777-----3333-5555-777-----5555-7777-8-8--3---5--5p3--7-7-7-7p5---|

|-000---------------333---------------555----------------------------------------|

|-000---------------333---------------555----------------------------------------|

breakdown:

|------------------------------------------------------------|

|------------------------------------------------------------|

|------------------------------------------------------------|

|-------------------------------------------7-5---5---5h7p5--|

|-0-------------0--------------0------------8-7---7---7h8p7--|

|-0-0-000-000-0-0-00-000-000-0-0-00-000-000-----0---0--------|

. .. ... . . .. ... ... . . .. ... ...

bridge part:

|------------------------------------|

|------------------------------------|

|------------------------------------|

|--------------------7-5---5---5h7p5-|

|-8------10----5-----8-7---7---7h8p7-|

|-8------10----5---------0---0-------|

. .

Get this song at:  amazon.com sheetmusicplus.com

Share your thoughts

0 Comments found