Dan Tyminski

Dan Tyminski - Man Of Constant Sorrow Mandolin guitar tab

Dan Tyminski

Album: O' Brother Where Art Thou

Written By: Carter Stanley

Submitted By: RoC

Intro Tab

F

-1-1-1-1-1-1-1-1-1--4-4-4-4-4-4-4-4-1-1-1-1-1---------------

-3-3-3-3-3-3-3-3-3--3-3-3-3-3-3-3-3-3-3-3-3-3-6-3-1---------

------------------------------------------------------------

------------------------------------------------------------

Bb C

------------------------------------------------------------

------------------1-1-1-1-1-1-1-1-1-1-1-1-1-0-1-3-3-3-3-3-3-

-6-3-3-3-3-3-3-3--3-3-3-3-3-3-3-3-3-3-3-3-3-3-3-5-5-5-5-5-5-

---2-2-2-2-2-2-2--------------------------------------------

F

-----------------------------------------

-6-3------3-3-3-3--3---------------------

-----8----5-5-5-5----8-6-3-3-3-3-3-3-3---

-------------------------2-2-2-2-2-2-2---

Bb C Bb F

(Constant sorrow through his days)

F Bb

I am the man of constant sorrow

C Bb F

I've seen trouble on my days

F Bb

I bid farewell to old Kentucky

C Bb F

The place where I was born and raised

Bb C Bb F

(The place where he was born and raised)

--Break--> F Bb C Bb F

F Bb

For six long years, I've been in trouble

C Bb F

No pleasure here on earth I find

F Bb

For in this world, I'm bound to ramble

C Bb F

I have no friends to help me now

Bb C Bb F

(He has no friends to help him now)

--Break--> F Bb C Bb F

F Bb

Oh, I'm bound to ride that northern railroad

C Bb F

Perhaps I'll die upon this train

Bb C Bb F

(Perhaps I'll die upon this train)

--Break--> F Bb C Bb F

F Bb

Maybe your friends think I'm just a stranger

C Bb F

My face you'll never see no more

F Bb

But there is one promise that is given

C Bb F

I'll meet you on God's golden shore

Bb C Bb F F

(He'll meet you on God's golden shore)

Get this song at:  amazon.com

Share your thoughts

0 Comments found