Dan Fogelberg

Dan Fogelberg - Wishing on the Moon guitar tab

-transcribed by Greg Steele -

http://www.gregorysteele.com - gsteele214@netscape.net

"Wishing On The Moon" by Dan Fogelberg - 1979

Intro: A D G D (3 times)

A D G C

E F

How many eyes will you sack in sorrow

C G

Seeking to borrow some sight of your own?

E F

How many lies will you have to suffer

C G

Until you discover there's nobody home?

A G D

How many roads will you have to wander?

A G D

How many dead end streets?

A G D

How many dreams will you have to squander

A G D

Dodging your own defeat?

Chorus:

Dm A

Wishing on the moon tonight

Dm C G

There's not a lucky star in sight

Dm C E A D G D A D G C

Just wishing on the moon tonight

How many doors will have to open

Desperately hoping each one's the last?

How many more will you close behind you

Bitter and blind to the shadows you cast?

How many fools will you have to follow

How many wayward winds?

How many sins will you have to swallow

Until the truth sinks in... that you've been -

Bridge:

N.C.

E |-----------------|------------------------|------------------|--------------------|

B |-----------------|------------------------|------------------|--------------------|

G |-----------------|------------------------|------------------|--------------------|

D |---------2----2--|2--0--------4-----0-----|---------2-----2--|0-------------------|

A |-----------------|------2--------2-----2--|------------------|---4--2--0---0------|

E |0--0-h4----------|---------3--------------|0--0-h4-----------|---------------3--2-|

/ / / / / / / / / / / / / / / /

E |-----------------|------------------------|------------------|------------------|

B |-----------------|------------------------|------------------|------------------|

G |-----------------|------------------------|------------------|------------------|

D |---------2----2--|2--0--------4-----0-----|---------2-----2--|0-----------------|

A |-----------------|------2--------2-----2--|------------------|---4--2--0-----0--|

E |0--0-h4----------|---------3--------------|0--0-h4-----------|------------------|

/ / / / / / / / / / / / / / / /

Play intro chords during lead

Repeat first verse, chorus (twice) and end with an Fmaj7

Get this song at:  amazon.com sheetmusicplus.com

Share your thoughts

0 Comments found