Damien Rice

Damien Rice - 9 Crimes guitar tab

Artist-Damien Rice

Song-9 Crimes

This is the class new single from the Damien rice, who has to be the best singer

around atm.This song is reli easy to play but the song is mainly piano so i had to transcribe

to guitar.

Tuning Standard

e|-----------|

B|-----0---1-|

G|--2--------| This is the first three notes you play then the rest of the

D|-----------| song is literally repeating what i have tabbed below.

A|-----------| So simple but a still a mint song!!!

E|-----------|

e|--------------------------------------------------------------------------|

B|---------------------1----------------------------------------------------|

G|--------------2------------------------0-------------------0--------0--2--|

D|--------2--------------------------2-------------------2------------------|

A|--0----------------------3---3------------------3----------------2--------|

E|-------------------------------------------3-------------------3----------|

Ben

webmaster at tabs-database.com.comAdded by tabs-database.com and our distinguished partners

Get this song at:  amazon.com sheetmusicplus.com

Share your thoughts

0 Comments found