Cross Canadian Ragweed

Cross Canadian Ragweed - Workin' On Ok 2 intro guitar tab

Workin' On Ok - intro

by Cross Canadian Ragweed

e-------------------------------------------------------e

B-------------------------------------------------------B

G--------1h2-2222-2p1---------------1h2-2222-2p1--------G

D------2--------------2-----2-----2--------------2------D

A----2------------------0h2-----2-----------------------A

E--0--------------------------0-------------------------E

e--------------------------------------------------------e

B------2-2h3-3333-3p2------------------------------------B

G----2----------------2--------1h2-2222-2p1--------------G

D--2-------------------------2--------------2------------D

A--------------------------2-----------------------------A

E------------------------0-------------------------------E

.... .^. .... .^. .... .^.

e--4444--222--4444--222--4444--222-----------2-----------e

B--5555--222--5555--222--5555--222---------0-------------B

G--6666--222--6666--222--6666--222------1----------------G

D--6666--444--6666--444--6666--444----1------------------D

A--------444--------444--------444--2--------------------A

E--------------------------------------------------------E

SYMBOLS =

h = hammer

p = pull-off

. = downstroke

^ = upstroke

enjoy :)

mammycc_05@yahoo.com

Get this song at:  amazon.com sheetmusicplus.com

Share your thoughts

0 Comments found